ISO-10303-21;
HEADER;
FILE_DESCRIPTION (( 'STEP AP203' ),
    '1' );
FILE_NAME ('Web Model 47230_36985.step',
    '2019-01-07T15:30:44',
    ( '' ),
    ( '' ),
    'SwSTEP 2.0',
    'SolidWorks 2016',
    '' );
FILE_SCHEMA (( 'CONFIG_CONTROL_DESIGN' ));
ENDSEC;

DATA;
#1 = VERTEX_POINT ( 'NONE', #32 ) ;
#2 = APPROVAL_STATUS ( 'not_yet_approved' ) ;
#3 = DATE_TIME_ROLE ( 'creation_date' ) ;
#4 = CARTESIAN_POINT ( 'NONE',  ( 0.0000000000000000000, 0.0000000000000000000, 2.000000000000000000 ) ) ;
#5 = EDGE_LOOP ( 'NONE', ( #134, #110, #120, #102 ) ) ;
#6 = DIRECTION ( 'NONE',  ( 0.0000000000000000000, 0.0000000000000000000, 1.000000000000000000 ) ) ;
#7 = AXIS2_PLACEMENT_3D ( 'NONE', #169, #123, #65 ) ;
#8 = CLOSED_SHELL ( 'NONE', ( #106, #77, #162, #135 ) ) ;
#9 = CYLINDRICAL_SURFACE ( 'NONE', #92, 25.00000000000000000 ) ;
#10 = CC_DESIGN_APPROVAL ( #12, ( #159 ) ) ;
#11 = AXIS2_PLACEMENT_3D ( 'NONE', #90, #107, #41 ) ;
#12 = APPROVAL ( #2, 'UNSPECIFIED' ) ;
#13 = DIRECTION ( 'NONE',  ( -1.000000000000000000, 0.0000000000000000000, 0.0000000000000000000 ) ) ;
#14 = PERSON ( 'UNSPECIFIED', 'UNSPECIFIED', 'UNSPECIFIED', ('UNSPECIFIED'), ('UNSPECIFIED'), ('UNSPECIFIED') ) ;
#15 = CARTESIAN_POINT ( 'NONE',  ( -25.00000000000000000, 0.0000000000000000000, -2.000000000000000000 ) ) ;
#16 = EDGE_LOOP ( 'NONE', ( #157, #24, #67, #97 ) ) ;
#17 = DIRECTION ( 'NONE',  ( 0.0000000000000000000, 0.0000000000000000000, 1.000000000000000000 ) ) ;
#18 = EDGE_CURVE ( 'NONE', #141, #1, #165, .T. ) ;
#19 = APPLICATION_CONTEXT ( 'configuration controlled 3d designs of mechanical parts and assemblies' ) ;
#20 = APPROVAL_STATUS ( 'not_yet_approved' ) ;
#21 = COORDINATED_UNIVERSAL_TIME_OFFSET ( 5, 0, .BEHIND. ) ;
#22 = PERSON_AND_ORGANIZATION ( #14, #136 ) ;
#23 = AXIS2_PLACEMENT_3D ( 'NONE', #133, #62, #30 ) ;
#24 = ORIENTED_EDGE ( 'NONE', *, *, #170, .T. ) ;
#25 = CC_DESIGN_APPROVAL ( #105, ( #144 ) ) ;
#26 = PERSON_AND_ORGANIZATION ( #14, #136 ) ;
#27 = AXIS2_PLACEMENT_3D ( 'NONE', #139, #6, #150 ) ;
#28 = PERSON_AND_ORGANIZATION ( #14, #136 ) ;
#29 = EDGE_CURVE ( 'NONE', #64, #54, #129, .T. ) ;
#30 = DIRECTION ( 'NONE',  ( 1.000000000000000000, 0.0000000000000000000, 0.0000000000000000000 ) ) ;
#31 = LOCAL_TIME ( 10, 30, 43.00000000000000000, #101 ) ;
#32 = CARTESIAN_POINT ( 'NONE',  ( 25.00000000000000000, 3.061616997868383000E-015, 2.000000000000000000 ) ) ;
#33 = DIRECTION ( 'NONE',  ( -1.000000000000000000, 0.0000000000000000000, 0.0000000000000000000 ) ) ;
#34 = EDGE_CURVE ( 'NONE', #141, #54, #156, .T. ) ;
#35 = APPLICATION_CONTEXT ( 'configuration controlled 3d designs of mechanical parts and assemblies' ) ;
#36 = DIRECTION ( 'NONE',  ( 1.000000000000000000, 0.0000000000000000000, 0.0000000000000000000 ) ) ;
#37 = CARTESIAN_POINT ( 'NONE',  ( 0.0000000000000000000, 0.0000000000000000000, -2.000000000000000000 ) ) ;
#38 = CC_DESIGN_PERSON_AND_ORGANIZATION_ASSIGNMENT ( #128, #168, ( #138 ) ) ;
#39 = EDGE_CURVE ( 'NONE', #54, #64, #172, .T. ) ;
#40 = LOCAL_TIME ( 10, 30, 43.00000000000000000, #55 ) ;
#41 = DIRECTION ( 'NONE',  ( 1.000000000000000000, 0.0000000000000000000, 0.0000000000000000000 ) ) ;
#42 = PERSON_AND_ORGANIZATION ( #14, #136 ) ;
#43 = VECTOR ( 'NONE', #80, 1000.000000000000000 ) ;
#44 = CC_DESIGN_PERSON_AND_ORGANIZATION_ASSIGNMENT ( #28, #166, ( #132 ) ) ;
#45 = DATE_AND_TIME ( #85, #161 ) ;
#46 = DIRECTION ( 'NONE',  ( -0.0000000000000000000, -0.0000000000000000000, -1.000000000000000000 ) ) ;
#47 = MECHANICAL_CONTEXT ( 'NONE', #35, 'mechanical' ) ;
#48 = APPROVAL_STATUS ( 'not_yet_approved' ) ;
#49 = VECTOR ( 'NONE', #175, 1000.000000000000000 ) ;
#50 = SECURITY_CLASSIFICATION_LEVEL ( 'unclassified' ) ;
#51 = COORDINATED_UNIVERSAL_TIME_OFFSET ( 5, 0, .BEHIND. ) ;
#52 = CALENDAR_DATE ( 2019, 7, 1 ) ;
#53 = SHAPE_DEFINITION_REPRESENTATION ( #76, #103 ) ;
#54 = VERTEX_POINT ( 'NONE', #15 ) ;
#55 = COORDINATED_UNIVERSAL_TIME_OFFSET ( 5, 0, .BEHIND. ) ;
#56 = PLANE ( 'NONE',  #27 ) ;
#57 = DIRECTION ( 'NONE',  ( 1.000000000000000000, 0.0000000000000000000, -0.0000000000000000000 ) ) ;
#58 = FACE_OUTER_BOUND ( 'NONE', #16, .T. ) ;
#59 = PERSON_AND_ORGANIZATION_ROLE ( 'classification_officer' ) ;
#60 = DATE_AND_TIME ( #91, #31 ) ;
#61 = CC_DESIGN_DATE_AND_TIME_ASSIGNMENT ( #70, #155, ( #159 ) ) ;
#62 = DIRECTION ( 'NONE',  ( 0.0000000000000000000, 0.0000000000000000000, 1.000000000000000000 ) ) ;
#63 = CC_DESIGN_PERSON_AND_ORGANIZATION_ASSIGNMENT ( #22, #126, ( #144 ) ) ;
#64 = VERTEX_POINT ( 'NONE', #142 ) ;
#65 = DIRECTION ( 'NONE',  ( 1.000000000000000000, 0.0000000000000000000, 0.0000000000000000000 ) ) ;
#66 = CARTESIAN_POINT ( 'NONE',  ( 25.00000000000000000, 3.061616997868383000E-015, 2.000000000000000000 ) ) ;
#67 = ORIENTED_EDGE ( 'NONE', *, *, #29, .T. ) ;
#68 = AXIS2_PLACEMENT_3D ( 'NONE', #37, #153, #36 ) ;
#69 = DIRECTION ( 'NONE',  ( 1.000000000000000000, 0.0000000000000000000, 0.0000000000000000000 ) ) ;
#70 = DATE_AND_TIME ( #52, #140 ) ;
#71 = PRODUCT_RELATED_PRODUCT_CATEGORY ( 'detail', '', ( #138 ) ) ;
#72 = DATE_AND_TIME ( #146, #40 ) ;
#73 = EDGE_LOOP ( 'NONE', ( #147, #158 ) ) ;
#74 = CC_DESIGN_DATE_AND_TIME_ASSIGNMENT ( #45, #3, ( #132 ) ) ;
#75 = LINE ( 'NONE', #66, #43 ) ;
#76 = PRODUCT_DEFINITION_SHAPE ( 'NONE', 'NONE',  #132 ) ;
#77 = ADVANCED_FACE ( 'NONE', ( #88 ), #9, .T. ) ;
#78 =( GEOMETRIC_REPRESENTATION_CONTEXT ( 3 ) GLOBAL_UNCERTAINTY_ASSIGNED_CONTEXT ( ( #83 ) ) GLOBAL_UNIT_ASSIGNED_CONTEXT ( ( #121, #164, #152 ) ) REPRESENTATION_CONTEXT ( 'NONE', 'WORKASPACE' ) );
#79 = MANIFOLD_SOLID_BREP ( 'Boss-Extrude1', #8 ) ;
#80 = DIRECTION ( 'NONE',  ( -0.0000000000000000000, -0.0000000000000000000, -1.000000000000000000 ) ) ;
#81 = APPROVAL_ROLE ( '' ) ;
#82 = APPLICATION_PROTOCOL_DEFINITION ( 'international standard', 'config_control_design', 1994, #19 ) ;
#83 = UNCERTAINTY_MEASURE_WITH_UNIT (LENGTH_MEASURE( 1.000000000000000100E-005 ), #121, 'distance_accuracy_value', 'NONE');
#84 = AXIS2_PLACEMENT_3D ( 'NONE', #151, #122, #69 ) ;
#85 = CALENDAR_DATE ( 2019, 7, 1 ) ;
#86 = PERSON_AND_ORGANIZATION ( #14, #136 ) ;
#87 = CC_DESIGN_APPROVAL ( #149, ( #132 ) ) ;
#88 = FACE_OUTER_BOUND ( 'NONE', #5, .T. ) ;
#89 = ORIENTED_EDGE ( 'NONE', *, *, #39, .F. ) ;
#90 = CARTESIAN_POINT ( 'NONE',  ( 0.0000000000000000000, 0.0000000000000000000, 2.000000000000000000 ) ) ;
#91 = CALENDAR_DATE ( 2019, 7, 1 ) ;
#92 = AXIS2_PLACEMENT_3D ( 'NONE', #109, #100, #33 ) ;
#93 = APPROVAL_DATE_TIME ( #125, #12 ) ;
#94 = APPROVAL_ROLE ( '' ) ;
#95 = PLANE ( 'NONE',  #104 ) ;
#96 = CIRCLE ( 'NONE', #84, 25.00000000000000000 ) ;
#97 = ORIENTED_EDGE ( 'NONE', *, *, #34, .F. ) ;
#98 = APPROVAL_ROLE ( '' ) ;
#99 = PERSON_AND_ORGANIZATION ( #14, #136 ) ;
#100 = DIRECTION ( 'NONE',  ( -0.0000000000000000000, -0.0000000000000000000, -1.000000000000000000 ) ) ;
#101 = COORDINATED_UNIVERSAL_TIME_OFFSET ( 5, 0, .BEHIND. ) ;
#102 = ORIENTED_EDGE ( 'NONE', *, *, #39, .T. ) ;
#103 = ADVANCED_BREP_SHAPE_REPRESENTATION ( 'Web Model 47230_36985', ( #79, #7 ), #78 ) ;
#104 = AXIS2_PLACEMENT_3D ( 'NONE', #4, #17, #57 ) ;
#105 = APPROVAL ( #20, 'UNSPECIFIED' ) ;
#106 = ADVANCED_FACE ( 'NONE', ( #58 ), #148, .T. ) ;
#107 = DIRECTION ( 'NONE',  ( 0.0000000000000000000, 0.0000000000000000000, 1.000000000000000000 ) ) ;
#108 = CARTESIAN_POINT ( 'NONE',  ( -25.00000000000000000, 0.0000000000000000000, 2.000000000000000000 ) ) ;
#109 = CARTESIAN_POINT ( 'NONE',  ( 0.0000000000000000000, 0.0000000000000000000, 2.000000000000000000 ) ) ;
#110 = ORIENTED_EDGE ( 'NONE', *, *, #18, .F. ) ;
#111 = PERSON_AND_ORGANIZATION_ROLE ( 'creator' ) ;
#112 = APPLICATION_PROTOCOL_DEFINITION ( 'international standard', 'config_control_design', 1994, #35 ) ;
#113 = FACE_OUTER_BOUND ( 'NONE', #73, .T. ) ;
#114 = CC_DESIGN_PERSON_AND_ORGANIZATION_ASSIGNMENT ( #163, #111, ( #144 ) ) ;
#115 = AXIS2_PLACEMENT_3D ( 'NONE', #124, #46, #13 ) ;
#116 = CC_DESIGN_PERSON_AND_ORGANIZATION_ASSIGNMENT ( #86, #59, ( #159 ) ) ;
#117 = EDGE_CURVE ( 'NONE', #1, #141, #96, .T. ) ;
#118 = APPROVAL_PERSON_ORGANIZATION ( #99, #12, #94 ) ;
#119 = CARTESIAN_POINT ( 'NONE',  ( -25.00000000000000000, 0.0000000000000000000, 2.000000000000000000 ) ) ;
#120 = ORIENTED_EDGE ( 'NONE', *, *, #34, .T. ) ;
#121 =( LENGTH_UNIT ( ) NAMED_UNIT ( * ) SI_UNIT ( .MILLI., .METRE. ) );
#122 = DIRECTION ( 'NONE',  ( 0.0000000000000000000, 0.0000000000000000000, 1.000000000000000000 ) ) ;
#123 = DIRECTION ( 'NONE',  ( 0.0000000000000000000, 0.0000000000000000000, 1.000000000000000000 ) ) ;
#124 = CARTESIAN_POINT ( 'NONE',  ( 0.0000000000000000000, 0.0000000000000000000, 2.000000000000000000 ) ) ;
#125 = DATE_AND_TIME ( #137, #131 ) ;
#126 = PERSON_AND_ORGANIZATION_ROLE ( 'design_supplier' ) ;
#127 = APPROVAL_DATE_TIME ( #72, #105 ) ;
#128 = PERSON_AND_ORGANIZATION ( #14, #136 ) ;
#129 = CIRCLE ( 'NONE', #23, 25.00000000000000000 ) ;
#130 = DESIGN_CONTEXT ( 'detailed design', #19, 'design' ) ;
#131 = LOCAL_TIME ( 10, 30, 43.00000000000000000, #51 ) ;
#132 = PRODUCT_DEFINITION ( 'UNKNOWN', '', #144, #130 ) ;
#133 = CARTESIAN_POINT ( 'NONE',  ( 0.0000000000000000000, 0.0000000000000000000, -2.000000000000000000 ) ) ;
#134 = ORIENTED_EDGE ( 'NONE', *, *, #170, .F. ) ;
#135 = ADVANCED_FACE ( 'NONE', ( #154 ), #56, .F. ) ;
#136 = ORGANIZATION ( 'UNSPECIFIED', 'UNSPECIFIED', '' ) ;
#137 = CALENDAR_DATE ( 2019, 7, 1 ) ;
#138 = PRODUCT ( 'Web Model 47230_36985', 'Web Model 47230_36985', '', ( #47 ) ) ;
#139 = CARTESIAN_POINT ( 'NONE',  ( 0.0000000000000000000, 0.0000000000000000000, -2.000000000000000000 ) ) ;
#140 = LOCAL_TIME ( 10, 30, 43.00000000000000000, #21 ) ;
#141 = VERTEX_POINT ( 'NONE', #108 ) ;
#142 = CARTESIAN_POINT ( 'NONE',  ( 25.00000000000000000, 3.061616997868383000E-015, -2.000000000000000000 ) ) ;
#143 = APPROVAL_PERSON_ORGANIZATION ( #42, #105, #98 ) ;
#144 = PRODUCT_DEFINITION_FORMATION_WITH_SPECIFIED_SOURCE ( 'ANY', '', #138, .NOT_KNOWN. ) ;
#145 = EDGE_LOOP ( 'NONE', ( #89, #173 ) ) ;
#146 = CALENDAR_DATE ( 2019, 7, 1 ) ;
#147 = ORIENTED_EDGE ( 'NONE', *, *, #18, .T. ) ;
#148 = CYLINDRICAL_SURFACE ( 'NONE', #115, 25.00000000000000000 ) ;
#149 = APPROVAL ( #48, 'UNSPECIFIED' ) ;
#150 = DIRECTION ( 'NONE',  ( 1.000000000000000000, 0.0000000000000000000, -0.0000000000000000000 ) ) ;
#151 = CARTESIAN_POINT ( 'NONE',  ( 0.0000000000000000000, 0.0000000000000000000, 2.000000000000000000 ) ) ;
#152 =( NAMED_UNIT ( * ) SI_UNIT ( $, .STERADIAN. ) SOLID_ANGLE_UNIT ( ) );
#153 = DIRECTION ( 'NONE',  ( 0.0000000000000000000, 0.0000000000000000000, 1.000000000000000000 ) ) ;
#154 = FACE_OUTER_BOUND ( 'NONE', #145, .T. ) ;
#155 = DATE_TIME_ROLE ( 'classification_date' ) ;
#156 = LINE ( 'NONE', #119, #49 ) ;
#157 = ORIENTED_EDGE ( 'NONE', *, *, #117, .F. ) ;
#158 = ORIENTED_EDGE ( 'NONE', *, *, #117, .T. ) ;
#159 = SECURITY_CLASSIFICATION ( '', '', #50 ) ;
#160 = APPROVAL_PERSON_ORGANIZATION ( #26, #149, #81 ) ;
#161 = LOCAL_TIME ( 10, 30, 43.00000000000000000, #167 ) ;
#162 = ADVANCED_FACE ( 'NONE', ( #113 ), #95, .T. ) ;
#163 = PERSON_AND_ORGANIZATION ( #14, #136 ) ;
#164 =( NAMED_UNIT ( * ) PLANE_ANGLE_UNIT ( ) SI_UNIT ( $, .RADIAN. ) );
#165 = CIRCLE ( 'NONE', #11, 25.00000000000000000 ) ;
#166 = PERSON_AND_ORGANIZATION_ROLE ( 'creator' ) ;
#167 = COORDINATED_UNIVERSAL_TIME_OFFSET ( 5, 0, .BEHIND. ) ;
#168 = PERSON_AND_ORGANIZATION_ROLE ( 'design_owner' ) ;
#169 = CARTESIAN_POINT ( 'NONE',  ( 0.0000000000000000000, 0.0000000000000000000, 0.0000000000000000000 ) ) ;
#170 = EDGE_CURVE ( 'NONE', #1, #64, #75, .T. ) ;
#171 = APPROVAL_DATE_TIME ( #60, #149 ) ;
#172 = CIRCLE ( 'NONE', #68, 25.00000000000000000 ) ;
#173 = ORIENTED_EDGE ( 'NONE', *, *, #29, .F. ) ;
#174 = CC_DESIGN_SECURITY_CLASSIFICATION ( #159, ( #144 ) ) ;
#175 = DIRECTION ( 'NONE',  ( -0.0000000000000000000, -0.0000000000000000000, -1.000000000000000000 ) ) ;
ENDSEC;
END-ISO-10303-21;
