ISO-10303-21;
HEADER;
FILE_DESCRIPTION (( 'STEP AP203' ),
    '1' );
FILE_NAME ('step_32701.step',
    '2014-06-05T19:28:26',
    ( '' ),
    ( '' ),
    'SwSTEP 2.0',
    'SolidWorks 2014',
    '' );
FILE_SCHEMA (( 'CONFIG_CONTROL_DESIGN' ));
ENDSEC;

DATA;
#1 = CARTESIAN_POINT ( 'NONE',  ( 0.0000000000000000000, 30.00000000000000000, 30.00000000000000000 ) ) ;
#2 = ORIENTED_EDGE ( 'NONE', *, *, #235, .T. ) ;
#3 = DIRECTION ( 'NONE',  ( 0.0000000000000000000, -1.000000000000000000, 0.0000000000000000000 ) ) ;
#4 = APPROVAL_PERSON_ORGANIZATION ( #136, #102, #281 ) ;
#5 = CARTESIAN_POINT ( 'NONE',  ( 30.00000000000000000, 1.939216921465252100E-015, 30.00000000000000000 ) ) ;
#6 = DIRECTION ( 'NONE',  ( 0.0000000000000000000, -0.0000000000000000000, -1.000000000000000000 ) ) ;
#7 = CARTESIAN_POINT ( 'NONE',  ( 0.0000000000000000000, 30.00000000000000000, 30.00000000000000000 ) ) ;
#8 = ORIENTED_EDGE ( 'NONE', *, *, #252, .F. ) ;
#9 = DIRECTION ( 'NONE',  ( -0.0000000000000000000, 1.000000000000000000, -0.0000000000000000000 ) ) ;
#10 = CARTESIAN_POINT ( 'NONE',  ( 0.0000000000000000000, 0.0000000000000000000, 30.00000000000000000 ) ) ;
#11 = ORIENTED_EDGE ( 'NONE', *, *, #66, .F. ) ;
#12 = CARTESIAN_POINT ( 'NONE',  ( 30.00000000000000000, 30.00000000000000000, 30.00000000000000000 ) ) ;
#13 = CC_DESIGN_PERSON_AND_ORGANIZATION_ASSIGNMENT ( #115, #299, ( #32 ) ) ;
#14 = CARTESIAN_POINT ( 'NONE',  ( 30.00000000000000000, 1.939216921465252100E-015, 30.00000000000000000 ) ) ;
#15 = LINE ( 'NONE', #75, #311 ) ;
#16 = DIRECTION ( 'NONE',  ( 1.000000000000000000, 6.464056404884174700E-017, -0.0000000000000000000 ) ) ;
#17 = PERSON_AND_ORGANIZATION ( #239, #302 ) ;
#18 = CARTESIAN_POINT ( 'NONE',  ( 30.00000000000000000, 30.00000000000000000, 0.0000000000000000000 ) ) ;
#19 =( NAMED_UNIT ( * ) SI_UNIT ( $, .STERADIAN. ) SOLID_ANGLE_UNIT ( ) );
#20 = DIRECTION ( 'NONE',  ( -0.0000000000000000000, -0.0000000000000000000, -1.000000000000000000 ) ) ;
#21 = ORIENTED_EDGE ( 'NONE', *, *, #204, .F. ) ;
#22 = VERTEX_POINT ( 'NONE', #145 ) ;
#23 = ADVANCED_BREP_SHAPE_REPRESENTATION ( 'step_32701', ( #229, #278, #126 ), #184 ) ;
#24 = CARTESIAN_POINT ( 'NONE',  ( 30.00000000000000000, 30.00000000000000000, 30.00000000000000000 ) ) ;
#25 = ADVANCED_FACE ( 'NONE', ( #183 ), #64, .F. ) ;
#26 = LINE ( 'NONE', #238, #191 ) ;
#27 = VECTOR ( 'NONE', #62, 1000.000000000000000 ) ;
#28 = PLANE ( 'NONE',  #149 ) ;
#29 = CARTESIAN_POINT ( 'NONE',  ( 0.0000000000000000000, 0.0000000000000000000, 30.00000000000000000 ) ) ;
#30 = DIRECTION ( 'NONE',  ( -0.0000000000000000000, 1.000000000000000000, -0.0000000000000000000 ) ) ;
#31 = DIRECTION ( 'NONE',  ( 1.000000000000000000, 0.0000000000000000000, 0.0000000000000000000 ) ) ;
#32 = SECURITY_CLASSIFICATION ( '', '', #298 ) ;
#33 = LINE ( 'NONE', #14, #51 ) ;
#34 = DIRECTION ( 'NONE',  ( 0.0000000000000000000, 0.0000000000000000000, -1.000000000000000000 ) ) ;
#35 = CC_DESIGN_PERSON_AND_ORGANIZATION_ASSIGNMENT ( #125, #296, ( #70 ) ) ;
#36 = ORIENTED_EDGE ( 'NONE', *, *, #277, .F. ) ;
#37 = CARTESIAN_POINT ( 'NONE',  ( 30.00000000000000000, 30.00000000000000000, 0.0000000000000000000 ) ) ;
#38 = CARTESIAN_POINT ( 'NONE',  ( 30.00000000000000000, 1.939216921465252100E-015, 0.0000000000000000000 ) ) ;
#39 = CC_DESIGN_PERSON_AND_ORGANIZATION_ASSIGNMENT ( #48, #295, ( #70 ) ) ;
#40 = DIRECTION ( 'NONE',  ( 1.000000000000000000, 6.464056404884174700E-017, -0.0000000000000000000 ) ) ;
#41 = VERTEX_POINT ( 'NONE', #190 ) ;
#42 = EDGE_LOOP ( 'NONE', ( #167, #284, #8, #47 ) ) ;
#43 = ORIENTED_EDGE ( 'NONE', *, *, #313, .T. ) ;
#44 = CC_DESIGN_SECURITY_CLASSIFICATION ( #32, ( #70 ) ) ;
#45 = CARTESIAN_POINT ( 'NONE',  ( 0.0000000000000000000, 0.0000000000000000000, 0.0000000000000000000 ) ) ;
#46 = CARTESIAN_POINT ( 'NONE',  ( 30.00000000000000000, 30.00000000000000000, 30.00000000000000000 ) ) ;
#47 = ORIENTED_EDGE ( 'NONE', *, *, #241, .T. ) ;
#48 = PERSON_AND_ORGANIZATION ( #239, #302 ) ;
#49 = ORIENTED_EDGE ( 'NONE', *, *, #66, .T. ) ;
#50 = CC_DESIGN_APPROVAL ( #59, ( #70 ) ) ;
#51 = VECTOR ( 'NONE', #16, 1000.000000000000000 ) ;
#52 = LINE ( 'NONE', #240, #103 ) ;
#53 = VECTOR ( 'NONE', #222, 1000.000000000000100 ) ;
#54 = FACE_OUTER_BOUND ( 'NONE', #88, .T. ) ;
#55 =( LENGTH_UNIT ( ) NAMED_UNIT ( * ) SI_UNIT ( .MILLI., .METRE. ) );
#56 = DIRECTION ( 'NONE',  ( 1.000000000000000000, 0.0000000000000000000, -0.0000000000000000000 ) ) ;
#57 = CALENDAR_DATE ( 2014, 5, 6 ) ;
#58 = LINE ( 'NONE', #7, #224 ) ;
#59 = APPROVAL ( #288, 'UNSPECIFIED' ) ;
#60 = ADVANCED_FACE ( 'NONE', ( #301 ), #177, .F. ) ;
#61 = PLANE ( 'NONE',  #172 ) ;
#62 = DIRECTION ( 'NONE',  ( -1.000000000000000000, -0.0000000000000000000, -0.0000000000000000000 ) ) ;
#63 = CARTESIAN_POINT ( 'NONE',  ( 0.0000000000000000000, 0.0000000000000000000, 0.0000000000000000000 ) ) ;
#64 = PLANE ( 'NONE',  #258 ) ;
#65 = DIRECTION ( 'NONE',  ( -0.0000000000000000000, -0.0000000000000000000, -1.000000000000000000 ) ) ;
#66 = EDGE_CURVE ( 'NONE', #275, #83, #260, .T. ) ;
#67 = EDGE_CURVE ( 'NONE', #83, #206, #168, .T. ) ;
#68 = VERTEX_POINT ( 'NONE', #12 ) ;
#69 = ORIENTED_EDGE ( 'NONE', *, *, #116, .F. ) ;
#70 = PRODUCT_DEFINITION_FORMATION_WITH_SPECIFIED_SOURCE ( 'ANY', '', #157, .NOT_KNOWN. ) ;
#71 = CARTESIAN_POINT ( 'NONE',  ( 30.00000000000000000, 30.00000000000000000, 30.00000000000000000 ) ) ;
#72 = CARTESIAN_POINT ( 'NONE',  ( 0.0000000000000000000, 0.0000000000000000000, 0.0000000000000000000 ) ) ;
#73 = ORIENTED_EDGE ( 'NONE', *, *, #207, .T. ) ;
#74 = ORIENTED_EDGE ( 'NONE', *, *, #204, .T. ) ;
#75 = CARTESIAN_POINT ( 'NONE',  ( 0.0000000000000000000, 0.0000000000000000000, 30.00000000000000000 ) ) ;
#76 = CC_DESIGN_DATE_AND_TIME_ASSIGNMENT ( #174, #283, ( #109 ) ) ;
#77 = PERSON_AND_ORGANIZATION ( #239, #302 ) ;
#78 = CC_DESIGN_PERSON_AND_ORGANIZATION_ASSIGNMENT ( #17, #282, ( #109 ) ) ;
#79 = CARTESIAN_POINT ( 'NONE',  ( 30.00000000000000000, 1.939216921465252100E-015, 30.00000000000000000 ) ) ;
#80 = VERTEX_POINT ( 'NONE', #246 ) ;
#81 = VERTEX_POINT ( 'NONE', #225 ) ;
#82 = CARTESIAN_POINT ( 'NONE',  ( 30.00000000000000000, 30.00000000000000000, 30.00000000000000000 ) ) ;
#83 = VERTEX_POINT ( 'NONE', #161 ) ;
#84 = CALENDAR_DATE ( 2014, 5, 6 ) ;
#85 = CC_DESIGN_APPROVAL ( #102, ( #109 ) ) ;
#86 = FACE_OUTER_BOUND ( 'NONE', #280, .T. ) ;
#87 = LINE ( 'NONE', #38, #264 ) ;
#88 = EDGE_LOOP ( 'NONE', ( #272, #175, #73 ) ) ;
#89 = EDGE_CURVE ( 'NONE', #110, #22, #15, .T. ) ;
#90 = CARTESIAN_POINT ( 'NONE',  ( 0.0000000000000000000, 0.0000000000000000000, 30.00000000000000000 ) ) ;
#91 = DIRECTION ( 'NONE',  ( -1.000000000000000000, 0.0000000000000000000, 0.0000000000000000000 ) ) ;
#92 = ADVANCED_FACE ( 'NONE', ( #188 ), #61, .T. ) ;
#93 = CARTESIAN_POINT ( 'NONE',  ( 0.0000000000000000000, 0.0000000000000000000, 0.0000000000000000000 ) ) ;
#94 = ORIENTED_EDGE ( 'NONE', *, *, #67, .T. ) ;
#95 = DIRECTION ( 'NONE',  ( 0.0000000000000000000, 0.0000000000000000000, -1.000000000000000000 ) ) ;
#96 = DIRECTION ( 'NONE',  ( -0.0000000000000000000, -0.0000000000000000000, -1.000000000000000000 ) ) ;
#97 = CARTESIAN_POINT ( 'NONE',  ( 0.0000000000000000000, 0.0000000000000000000, 30.00000000000000000 ) ) ;
#98 = SHAPE_DEFINITION_REPRESENTATION ( #320, #23 ) ;
#99 = UNCERTAINTY_MEASURE_WITH_UNIT (LENGTH_MEASURE( 1.000000000000000100E-005 ), #55, 'distance_accuracy_value', 'NONE');
#100 = DIRECTION ( 'NONE',  ( -6.464056404884175900E-017, 1.000000000000000000, 0.0000000000000000000 ) ) ;
#101 = APPROVAL_STATUS ( 'not_yet_approved' ) ;
#102 = APPROVAL ( #101, 'UNSPECIFIED' ) ;
#103 = VECTOR ( 'NONE', #96, 1000.000000000000000 ) ;
#104 = DIRECTION ( 'NONE',  ( 0.0000000000000000000, 0.0000000000000000000, -1.000000000000000000 ) ) ;
#105 = ORIENTED_EDGE ( 'NONE', *, *, #254, .F. ) ;
#106 = ORIENTED_EDGE ( 'NONE', *, *, #154, .F. ) ;
#107 = COORDINATED_UNIVERSAL_TIME_OFFSET ( 7, 0, .BEHIND. ) ;
#108 = VECTOR ( 'NONE', #9, 1000.000000000000000 ) ;
#109 = PRODUCT_DEFINITION ( 'UNKNOWN', '', #70, #155 ) ;
#110 = VERTEX_POINT ( 'NONE', #127 ) ;
#111 = ORIENTED_EDGE ( 'NONE', *, *, #207, .F. ) ;
#112 = ORIENTED_EDGE ( 'NONE', *, *, #142, .F. ) ;
#113 = LINE ( 'NONE', #82, #53 ) ;
#114 = LINE ( 'NONE', #24, #108 ) ;
#115 = PERSON_AND_ORGANIZATION ( #239, #302 ) ;
#116 = EDGE_CURVE ( 'NONE', #41, #80, #124, .T. ) ;
#117 = CC_DESIGN_PERSON_AND_ORGANIZATION_ASSIGNMENT ( #292, #318, ( #157 ) ) ;
#118 = FACE_OUTER_BOUND ( 'NONE', #146, .T. ) ;
#119 = VERTEX_POINT ( 'NONE', #90 ) ;
#120 = EDGE_LOOP ( 'NONE', ( #211, #289, #319, #129 ) ) ;
#121 = CARTESIAN_POINT ( 'NONE',  ( 0.0000000000000000000, 0.0000000000000000000, 30.00000000000000000 ) ) ;
#122 = COORDINATED_UNIVERSAL_TIME_OFFSET ( 7, 0, .BEHIND. ) ;
#123 = APPROVAL_STATUS ( 'not_yet_approved' ) ;
#124 = LINE ( 'NONE', #63, #166 ) ;
#125 = PERSON_AND_ORGANIZATION ( #239, #302 ) ;
#126 = AXIS2_PLACEMENT_3D ( 'NONE', #130, #268, #249 ) ;
#127 = CARTESIAN_POINT ( 'NONE',  ( 30.00000000000000000, 30.00000000000000000, 30.00000000000000000 ) ) ;
#128 = CLOSED_SHELL ( 'NONE', ( #60, #267, #287, #247, #180 ) ) ;
#129 = ORIENTED_EDGE ( 'NONE', *, *, #142, .T. ) ;
#130 = CARTESIAN_POINT ( 'NONE',  ( 0.0000000000000000000, 0.0000000000000000000, 0.0000000000000000000 ) ) ;
#131 = PLANE ( 'NONE',  #257 ) ;
#132 = ORIENTED_EDGE ( 'NONE', *, *, #291, .F. ) ;
#133 = VECTOR ( 'NONE', #65, 1000.000000000000000 ) ;
#134 = APPROVAL_DATE_TIME ( #150, #59 ) ;
#135 = ADVANCED_FACE ( 'NONE', ( #314 ), #209, .F. ) ;
#136 = PERSON_AND_ORGANIZATION ( #239, #302 ) ;
#137 = VECTOR ( 'NONE', #30, 1000.000000000000000 ) ;
#138 = DIRECTION ( 'NONE',  ( 0.7071067811865474600, 0.7071067811865474600, 0.0000000000000000000 ) ) ;
#139 = CARTESIAN_POINT ( 'NONE',  ( 0.0000000000000000000, 0.0000000000000000000, 30.00000000000000000 ) ) ;
#140 = LOCAL_TIME ( 12, 28, 26.00000000000000000, #107 ) ;
#141 = DIRECTION ( 'NONE',  ( 0.0000000000000000000, 0.0000000000000000000, 1.000000000000000000 ) ) ;
#142 = EDGE_CURVE ( 'NONE', #259, #202, #285, .T. ) ;
#143 = DIRECTION ( 'NONE',  ( -0.7071067811865475700, 0.7071067811865475700, 0.0000000000000000000 ) ) ;
#144 = VECTOR ( 'NONE', #218, 1000.000000000000000 ) ;
#145 = CARTESIAN_POINT ( 'NONE',  ( 0.0000000000000000000, 0.0000000000000000000, 30.00000000000000000 ) ) ;
#146 = EDGE_LOOP ( 'NONE', ( #106, #217, #11 ) ) ;
#147 = LINE ( 'NONE', #230, #305 ) ;
#148 = APPROVAL ( #123, 'UNSPECIFIED' ) ;
#149 = AXIS2_PLACEMENT_3D ( 'NONE', #29, #31, #34 ) ;
#150 = DATE_AND_TIME ( #57, #199 ) ;
#151 = CALENDAR_DATE ( 2014, 5, 6 ) ;
#152 = DIRECTION ( 'NONE',  ( 0.7071067811865475700, -0.7071067811865475700, 0.0000000000000000000 ) ) ;
#153 = FACE_OUTER_BOUND ( 'NONE', #169, .T. ) ;
#154 = EDGE_CURVE ( 'NONE', #206, #275, #176, .T. ) ;
#155 = DESIGN_CONTEXT ( 'detailed design', #271, 'design' ) ;
#156 = COORDINATED_UNIVERSAL_TIME_OFFSET ( 7, 0, .BEHIND. ) ;
#157 = PRODUCT ( 'step_32701', 'step_32701', '', ( #228 ) ) ;
#158 = DIRECTION ( 'NONE',  ( -0.0000000000000000000, -1.000000000000000000, -0.0000000000000000000 ) ) ;
#159 = CC_DESIGN_APPROVAL ( #148, ( #32 ) ) ;
#160 = DIRECTION ( 'NONE',  ( -0.7071067811865474600, -0.7071067811865474600, -0.0000000000000000000 ) ) ;
#161 = CARTESIAN_POINT ( 'NONE',  ( 0.0000000000000000000, 30.00000000000000000, 0.0000000000000000000 ) ) ;
#162 = ADVANCED_FACE ( 'NONE', ( #286 ), #131, .F. ) ;
#163 = VECTOR ( 'NONE', #219, 1000.000000000000100 ) ;
#164 = APPROVAL_PERSON_ORGANIZATION ( #200, #148, #181 ) ;
#165 = AXIS2_PLACEMENT_3D ( 'NONE', #71, #143, #256 ) ;
#166 = VECTOR ( 'NONE', #160, 1000.000000000000100 ) ;
#167 = ORIENTED_EDGE ( 'NONE', *, *, #154, .T. ) ;
#168 = LINE ( 'NONE', #93, #308 ) ;
#169 = EDGE_LOOP ( 'NONE', ( #49, #36, #270, #2 ) ) ;
#170 = APPLICATION_CONTEXT ( 'configuration controlled 3d designs of mechanical parts and assemblies' ) ;
#171 = CARTESIAN_POINT ( 'NONE',  ( 30.00000000000000000, 30.00000000000000000, 0.0000000000000000000 ) ) ;
#172 = AXIS2_PLACEMENT_3D ( 'NONE', #10, #226, #315 ) ;
#173 = ORIENTED_EDGE ( 'NONE', *, *, #116, .T. ) ;
#174 = DATE_AND_TIME ( #84, #140 ) ;
#175 = ORIENTED_EDGE ( 'NONE', *, *, #242, .T. ) ;
#176 = LINE ( 'NONE', #171, #163 ) ;
#177 = PLANE ( 'NONE',  #165 ) ;
#178 = ORIENTED_EDGE ( 'NONE', *, *, #241, .F. ) ;
#179 = APPROVAL_DATE_TIME ( #203, #148 ) ;
#180 = ADVANCED_FACE ( 'NONE', ( #118 ), #221, .T. ) ;
#181 = APPROVAL_ROLE ( '' ) ;
#182 = CC_DESIGN_DATE_AND_TIME_ASSIGNMENT ( #205, #201, ( #32 ) ) ;
#183 = FACE_OUTER_BOUND ( 'NONE', #276, .T. ) ;
#184 =( GEOMETRIC_REPRESENTATION_CONTEXT ( 3 ) GLOBAL_UNCERTAINTY_ASSIGNED_CONTEXT ( ( #99 ) ) GLOBAL_UNIT_ASSIGNED_CONTEXT ( ( #55, #300, #19 ) ) REPRESENTATION_CONTEXT ( 'NONE', 'WORKASPACE' ) );
#185 = CALENDAR_DATE ( 2014, 5, 6 ) ;
#186 = AXIS2_PLACEMENT_3D ( 'NONE', #1, #3, #6 ) ;
#187 = EDGE_LOOP ( 'NONE', ( #265, #213, #214 ) ) ;
#188 = FACE_OUTER_BOUND ( 'NONE', #187, .T. ) ;
#189 = VECTOR ( 'NONE', #248, 1000.000000000000000 ) ;
#190 = CARTESIAN_POINT ( 'NONE',  ( 30.00000000000000000, 30.00000000000000000, 0.0000000000000000000 ) ) ;
#191 = VECTOR ( 'NONE', #236, 1000.000000000000000 ) ;
#192 = AXIS2_PLACEMENT_3D ( 'NONE', #97, #95, #91 ) ;
#193 = LINE ( 'NONE', #139, #189 ) ;
#194 = ORIENTED_EDGE ( 'NONE', *, *, #277, .T. ) ;
#195 = PRODUCT_RELATED_PRODUCT_CATEGORY ( 'detail', '', ( #157 ) ) ;
#196 = DIRECTION ( 'NONE',  ( -1.000000000000000000, 0.0000000000000000000, 0.0000000000000000000 ) ) ;
#197 = APPROVAL_DATE_TIME ( #233, #102 ) ;
#198 = VECTOR ( 'NONE', #250, 1000.000000000000000 ) ;
#199 = LOCAL_TIME ( 12, 28, 26.00000000000000000, #304 ) ;
#200 = PERSON_AND_ORGANIZATION ( #239, #302 ) ;
#201 = DATE_TIME_ROLE ( 'classification_date' ) ;
#202 = VERTEX_POINT ( 'NONE', #231 ) ;
#203 = DATE_AND_TIME ( #185, #215 ) ;
#204 = EDGE_CURVE ( 'NONE', #22, #80, #193, .T. ) ;
#205 = DATE_AND_TIME ( #212, #294 ) ;
#206 = VERTEX_POINT ( 'NONE', #216 ) ;
#207 = EDGE_CURVE ( 'NONE', #81, #119, #147, .T. ) ;
#208 = AXIS2_PLACEMENT_3D ( 'NONE', #79, #100, #237 ) ;
#209 = PLANE ( 'NONE',  #303 ) ;
#210 = DIRECTION ( 'NONE',  ( -0.0000000000000000000, -1.000000000000000000, -0.0000000000000000000 ) ) ;
#211 = ORIENTED_EDGE ( 'NONE', *, *, #291, .T. ) ;
#212 = CALENDAR_DATE ( 2014, 5, 6 ) ;
#213 = ORIENTED_EDGE ( 'NONE', *, *, #279, .T. ) ;
#214 = ORIENTED_EDGE ( 'NONE', *, *, #89, .T. ) ;
#215 = LOCAL_TIME ( 12, 28, 26.00000000000000000, #122 ) ;
#216 = CARTESIAN_POINT ( 'NONE',  ( 0.0000000000000000000, 0.0000000000000000000, 0.0000000000000000000 ) ) ;
#217 = ORIENTED_EDGE ( 'NONE', *, *, #67, .F. ) ;
#218 = DIRECTION ( 'NONE',  ( -1.000000000000000000, -0.0000000000000000000, -0.0000000000000000000 ) ) ;
#219 = DIRECTION ( 'NONE',  ( 0.7071067811865474600, 0.7071067811865474600, -0.0000000000000000000 ) ) ;
#220 = ADVANCED_FACE ( 'NONE', ( #232 ), #227, .F. ) ;
#221 = PLANE ( 'NONE',  #223 ) ;
#222 = DIRECTION ( 'NONE',  ( 0.7071067811865474600, 0.7071067811865474600, -0.0000000000000000000 ) ) ;
#223 = AXIS2_PLACEMENT_3D ( 'NONE', #72, #104, #196 ) ;
#224 = VECTOR ( 'NONE', #20, 1000.000000000000000 ) ;
#225 = CARTESIAN_POINT ( 'NONE',  ( 0.0000000000000000000, 30.00000000000000000, 30.00000000000000000 ) ) ;
#226 = DIRECTION ( 'NONE',  ( 0.0000000000000000000, 0.0000000000000000000, 1.000000000000000000 ) ) ;
#227 = PLANE ( 'NONE',  #208 ) ;
#228 = MECHANICAL_CONTEXT ( 'NONE', #170, 'mechanical' ) ;
#229 = MANIFOLD_SOLID_BREP ( 'Boss-Extrude1', #128 ) ;
#230 = CARTESIAN_POINT ( 'NONE',  ( 0.0000000000000000000, 0.0000000000000000000, 30.00000000000000000 ) ) ;
#231 = CARTESIAN_POINT ( 'NONE',  ( 30.00000000000000000, 1.939216921465252100E-015, 0.0000000000000000000 ) ) ;
#232 = FACE_OUTER_BOUND ( 'NONE', #290, .T. ) ;
#233 = DATE_AND_TIME ( #151, #312 ) ;
#234 = ORIENTED_EDGE ( 'NONE', *, *, #89, .F. ) ;
#235 = EDGE_CURVE ( 'NONE', #68, #275, #52, .T. ) ;
#236 = DIRECTION ( 'NONE',  ( -0.0000000000000000000, -0.0000000000000000000, -1.000000000000000000 ) ) ;
#237 = DIRECTION ( 'NONE',  ( -1.000000000000000000, -6.464056404884175900E-017, 0.0000000000000000000 ) ) ;
#238 = CARTESIAN_POINT ( 'NONE',  ( 0.0000000000000000000, 0.0000000000000000000, 30.00000000000000000 ) ) ;
#239 = PERSON ( 'UNSPECIFIED', 'UNSPECIFIED', 'UNSPECIFIED', ('UNSPECIFIED'), ('UNSPECIFIED'), ('UNSPECIFIED') ) ;
#240 = CARTESIAN_POINT ( 'NONE',  ( 30.00000000000000000, 30.00000000000000000, 30.00000000000000000 ) ) ;
#241 = EDGE_CURVE ( 'NONE', #119, #206, #26, .T. ) ;
#242 = EDGE_CURVE ( 'NONE', #68, #81, #251, .T. ) ;
#243 = APPROVAL_PERSON_ORGANIZATION ( #77, #59, #293 ) ;
#244 = CARTESIAN_POINT ( 'NONE',  ( 30.00000000000000000, 30.00000000000000000, 30.00000000000000000 ) ) ;
#245 = CARTESIAN_POINT ( 'NONE',  ( 0.0000000000000000000, 30.00000000000000000, 30.00000000000000000 ) ) ;
#246 = CARTESIAN_POINT ( 'NONE',  ( 0.0000000000000000000, 0.0000000000000000000, 0.0000000000000000000 ) ) ;
#247 = ADVANCED_FACE ( 'NONE', ( #54 ), #261, .F. ) ;
#248 = DIRECTION ( 'NONE',  ( -0.0000000000000000000, -0.0000000000000000000, -1.000000000000000000 ) ) ;
#249 = DIRECTION ( 'NONE',  ( 1.000000000000000000, 0.0000000000000000000, 0.0000000000000000000 ) ) ;
#250 = DIRECTION ( 'NONE',  ( -0.0000000000000000000, -0.0000000000000000000, -1.000000000000000000 ) ) ;
#251 = LINE ( 'NONE', #245, #144 ) ;
#252 = EDGE_CURVE ( 'NONE', #119, #68, #113, .T. ) ;
#253 = PLANE ( 'NONE',  #186 ) ;
#254 = EDGE_CURVE ( 'NONE', #80, #202, #87, .T. ) ;
#255 = DIRECTION ( 'NONE',  ( -1.000000000000000000, 0.0000000000000000000, 0.0000000000000000000 ) ) ;
#256 = DIRECTION ( 'NONE',  ( -0.7071067811865474600, -0.7071067811865474600, 0.0000000000000000000 ) ) ;
#257 = AXIS2_PLACEMENT_3D ( 'NONE', #121, #152, #138 ) ;
#258 = AXIS2_PLACEMENT_3D ( 'NONE', #45, #274, #56 ) ;
#259 = VERTEX_POINT ( 'NONE', #5 ) ;
#260 = LINE ( 'NONE', #266, #27 ) ;
#261 = PLANE ( 'NONE',  #192 ) ;
#262 = EDGE_LOOP ( 'NONE', ( #173, #21, #234, #43 ) ) ;
#263 = DIRECTION ( 'NONE',  ( -0.7071067811865474600, -0.7071067811865474600, -0.0000000000000000000 ) ) ;
#264 = VECTOR ( 'NONE', #40, 1000.000000000000000 ) ;
#265 = ORIENTED_EDGE ( 'NONE', *, *, #269, .T. ) ;
#266 = CARTESIAN_POINT ( 'NONE',  ( 0.0000000000000000000, 30.00000000000000000, 0.0000000000000000000 ) ) ;
#267 = ADVANCED_FACE ( 'NONE', ( #153 ), #253, .F. ) ;
#268 = DIRECTION ( 'NONE',  ( 0.0000000000000000000, 0.0000000000000000000, 1.000000000000000000 ) ) ;
#269 = EDGE_CURVE ( 'NONE', #22, #259, #33, .T. ) ;
#270 = ORIENTED_EDGE ( 'NONE', *, *, #242, .F. ) ;
#271 = APPLICATION_CONTEXT ( 'configuration controlled 3d designs of mechanical parts and assemblies' ) ;
#272 = ORIENTED_EDGE ( 'NONE', *, *, #252, .T. ) ;
#273 = CARTESIAN_POINT ( 'NONE',  ( 30.00000000000000000, 1.939216921465252100E-015, 30.00000000000000000 ) ) ;
#274 = DIRECTION ( 'NONE',  ( 0.0000000000000000000, 0.0000000000000000000, 1.000000000000000000 ) ) ;
#275 = VERTEX_POINT ( 'NONE', #18 ) ;
#276 = EDGE_LOOP ( 'NONE', ( #105, #69, #132 ) ) ;
#277 = EDGE_CURVE ( 'NONE', #81, #83, #58, .T. ) ;
#278 = MANIFOLD_SOLID_BREP ( 'Boss-Extrude2', #297 ) ;
#279 = EDGE_CURVE ( 'NONE', #259, #110, #114, .T. ) ;
#280 = EDGE_LOOP ( 'NONE', ( #94, #178, #111, #194 ) ) ;
#281 = APPROVAL_ROLE ( '' ) ;
#282 = PERSON_AND_ORGANIZATION_ROLE ( 'creator' ) ;
#283 = DATE_TIME_ROLE ( 'creation_date' ) ;
#284 = ORIENTED_EDGE ( 'NONE', *, *, #235, .F. ) ;
#285 = LINE ( 'NONE', #273, #198 ) ;
#286 = FACE_OUTER_BOUND ( 'NONE', #262, .T. ) ;
#287 = ADVANCED_FACE ( 'NONE', ( #86 ), #28, .F. ) ;
#288 = APPROVAL_STATUS ( 'not_yet_approved' ) ;
#289 = ORIENTED_EDGE ( 'NONE', *, *, #313, .F. ) ;
#290 = EDGE_LOOP ( 'NONE', ( #321, #112, #307, #74 ) ) ;
#291 = EDGE_CURVE ( 'NONE', #202, #41, #309, .T. ) ;
#292 = PERSON_AND_ORGANIZATION ( #239, #302 ) ;
#293 = APPROVAL_ROLE ( '' ) ;
#294 = LOCAL_TIME ( 12, 28, 26.00000000000000000, #310 ) ;
#295 = PERSON_AND_ORGANIZATION_ROLE ( 'creator' ) ;
#296 = PERSON_AND_ORGANIZATION_ROLE ( 'design_supplier' ) ;
#297 = CLOSED_SHELL ( 'NONE', ( #220, #135, #162, #92, #25 ) ) ;
#298 = SECURITY_CLASSIFICATION_LEVEL ( 'unclassified' ) ;
#299 = PERSON_AND_ORGANIZATION_ROLE ( 'classification_officer' ) ;
#300 =( NAMED_UNIT ( * ) PLANE_ANGLE_UNIT ( ) SI_UNIT ( $, .RADIAN. ) );
#301 = FACE_OUTER_BOUND ( 'NONE', #42, .T. ) ;
#302 = ORGANIZATION ( 'UNSPECIFIED', 'UNSPECIFIED', '' ) ;
#303 = AXIS2_PLACEMENT_3D ( 'NONE', #244, #255, #141 ) ;
#304 = COORDINATED_UNIVERSAL_TIME_OFFSET ( 7, 0, .BEHIND. ) ;
#305 = VECTOR ( 'NONE', #210, 1000.000000000000000 ) ;
#306 = APPLICATION_PROTOCOL_DEFINITION ( 'international standard', 'config_control_design', 1994, #271 ) ;
#307 = ORIENTED_EDGE ( 'NONE', *, *, #269, .F. ) ;
#308 = VECTOR ( 'NONE', #158, 1000.000000000000000 ) ;
#309 = LINE ( 'NONE', #37, #137 ) ;
#310 = COORDINATED_UNIVERSAL_TIME_OFFSET ( 7, 0, .BEHIND. ) ;
#311 = VECTOR ( 'NONE', #263, 1000.000000000000100 ) ;
#312 = LOCAL_TIME ( 12, 28, 26.00000000000000000, #156 ) ;
#313 = EDGE_CURVE ( 'NONE', #110, #41, #316, .T. ) ;
#314 = FACE_OUTER_BOUND ( 'NONE', #120, .T. ) ;
#315 = DIRECTION ( 'NONE',  ( 1.000000000000000000, 0.0000000000000000000, -0.0000000000000000000 ) ) ;
#316 = LINE ( 'NONE', #46, #133 ) ;
#317 = APPLICATION_PROTOCOL_DEFINITION ( 'international standard', 'config_control_design', 1994, #170 ) ;
#318 = PERSON_AND_ORGANIZATION_ROLE ( 'design_owner' ) ;
#319 = ORIENTED_EDGE ( 'NONE', *, *, #279, .F. ) ;
#320 = PRODUCT_DEFINITION_SHAPE ( 'NONE', 'NONE',  #109 ) ;
#321 = ORIENTED_EDGE ( 'NONE', *, *, #254, .T. ) ;
ENDSEC;
END-ISO-10303-21;
