ISO-10303-21;
HEADER;
FILE_DESCRIPTION (( 'STEP AP203' ),
    '1' );
FILE_NAME ('Web Model 55257MX_48460.step',
    '2017-10-30T13:17:41',
    ( '' ),
    ( '' ),
    'SwSTEP 2.0',
    'SolidWorks 2016',
    '' );
FILE_SCHEMA (( 'CONFIG_CONTROL_DESIGN' ));
ENDSEC;

DATA;
#1 = DATE_AND_TIME ( #118, #170 ) ;
#2 = ORIENTED_EDGE ( 'NONE', *, *, #105, .F. ) ;
#3 = DESIGN_CONTEXT ( 'detailed design', #22, 'design' ) ;
#4 = DIRECTION ( 'NONE',  ( 0.0000000000000000000, 1.000000000000000000, 0.0000000000000000000 ) ) ;
#5 = EDGE_CURVE ( 'NONE', #12, #125, #31, .T. ) ;
#6 = PERSON_AND_ORGANIZATION ( #134, #63 ) ;
#7 = CARTESIAN_POINT ( 'NONE',  ( 15.00000000000000400, -15.00000000000000000, 4.750000000000000000 ) ) ;
#8 = EDGE_LOOP ( 'NONE', ( #186, #52, #27, #179 ) ) ;
#9 =( LENGTH_UNIT ( ) NAMED_UNIT ( * ) SI_UNIT ( .MILLI., .METRE. ) );
#10 = CC_DESIGN_PERSON_AND_ORGANIZATION_ASSIGNMENT ( #218, #24, ( #182 ) ) ;
#11 = APPROVAL_ROLE ( '' ) ;
#12 = VERTEX_POINT ( 'NONE', #34 ) ;
#13 = CC_DESIGN_PERSON_AND_ORGANIZATION_ASSIGNMENT ( #6, #153, ( #66 ) ) ;
#14 = ORIENTED_EDGE ( 'NONE', *, *, #113, .T. ) ;
#15 = AXIS2_PLACEMENT_3D ( 'NONE', #164, #35, #162 ) ;
#16 = APPROVAL_PERSON_ORGANIZATION ( #233, #212, #11 ) ;
#17 = DIRECTION ( 'NONE',  ( -1.000000000000000000, -1.156482317317871500E-016, 0.0000000000000000000 ) ) ;
#18 = PLANE ( 'NONE',  #227 ) ;
#19 = ORIENTED_EDGE ( 'NONE', *, *, #208, .F. ) ;
#20 = ORIENTED_EDGE ( 'NONE', *, *, #89, .F. ) ;
#21 = CARTESIAN_POINT ( 'NONE',  ( 15.00000000000000400, 15.00000000000000200, 4.750000000000000000 ) ) ;
#22 = APPLICATION_CONTEXT ( 'configuration controlled 3d designs of mechanical parts and assemblies' ) ;
#23 = FACE_OUTER_BOUND ( 'NONE', #8, .T. ) ;
#24 = PERSON_AND_ORGANIZATION_ROLE ( 'design_supplier' ) ;
#25 = PRODUCT_DEFINITION ( 'UNKNOWN', '', #182, #3 ) ;
#26 = CARTESIAN_POINT ( 'NONE',  ( 15.00000000000000400, 15.00000000000000200, 4.750000000000000000 ) ) ;
#27 = ORIENTED_EDGE ( 'NONE', *, *, #115, .T. ) ;
#28 = VECTOR ( 'NONE', #87, 1000.000000000000000 ) ;
#29 = COORDINATED_UNIVERSAL_TIME_OFFSET ( 5, 0, .BEHIND. ) ;
#30 = LOCAL_TIME ( 9, 17, 41.00000000000000000, #83 ) ;
#31 = LINE ( 'NONE', #235, #209 ) ;
#32 = COORDINATED_UNIVERSAL_TIME_OFFSET ( 5, 0, .BEHIND. ) ;
#33 = ORIENTED_EDGE ( 'NONE', *, *, #133, .T. ) ;
#34 = CARTESIAN_POINT ( 'NONE',  ( 15.00000000000000400, 15.00000000000000200, -4.750000000000000000 ) ) ;
#35 = DIRECTION ( 'NONE',  ( -1.000000000000000000, 0.0000000000000000000, 0.0000000000000000000 ) ) ;
#36 = CARTESIAN_POINT ( 'NONE',  ( -15.00000000000000000, 14.99999999999999800, -4.750000000000000000 ) ) ;
#37 = ORIENTED_EDGE ( 'NONE', *, *, #188, .F. ) ;
#38 = DIRECTION ( 'NONE',  ( -0.0000000000000000000, -1.000000000000000000, -0.0000000000000000000 ) ) ;
#39 = DIRECTION ( 'NONE',  ( -0.0000000000000000000, -0.0000000000000000000, -1.000000000000000000 ) ) ;
#40 =( GEOMETRIC_REPRESENTATION_CONTEXT ( 3 ) GLOBAL_UNCERTAINTY_ASSIGNED_CONTEXT ( ( #229 ) ) GLOBAL_UNIT_ASSIGNED_CONTEXT ( ( #9, #93, #189 ) ) REPRESENTATION_CONTEXT ( 'NONE', 'WORKASPACE' ) );
#41 = ORIENTED_EDGE ( 'NONE', *, *, #115, .F. ) ;
#42 = MECHANICAL_CONTEXT ( 'NONE', #174, 'mechanical' ) ;
#43 = DATE_TIME_ROLE ( 'classification_date' ) ;
#44 = VERTEX_POINT ( 'NONE', #180 ) ;
#45 = VECTOR ( 'NONE', #38, 1000.000000000000000 ) ;
#46 = ORIENTED_EDGE ( 'NONE', *, *, #137, .F. ) ;
#47 = APPROVAL ( #147, 'UNSPECIFIED' ) ;
#48 = COORDINATED_UNIVERSAL_TIME_OFFSET ( 5, 0, .BEHIND. ) ;
#49 = ORIENTED_EDGE ( 'NONE', *, *, #73, .T. ) ;
#50 = VECTOR ( 'NONE', #215, 1000.000000000000000 ) ;
#51 = AXIS2_PLACEMENT_3D ( 'NONE', #26, #59, #97 ) ;
#52 = ORIENTED_EDGE ( 'NONE', *, *, #89, .T. ) ;
#53 = FACE_OUTER_BOUND ( 'NONE', #91, .T. ) ;
#54 = DIRECTION ( 'NONE',  ( -1.156482317317871500E-016, 1.000000000000000000, 0.0000000000000000000 ) ) ;
#55 = DIRECTION ( 'NONE',  ( 1.000000000000000000, 1.156482317317871500E-016, -0.0000000000000000000 ) ) ;
#56 = EDGE_CURVE ( 'NONE', #102, #12, #74, .T. ) ;
#57 = DIRECTION ( 'NONE',  ( 0.0000000000000000000, 0.0000000000000000000, -1.000000000000000000 ) ) ;
#58 = CARTESIAN_POINT ( 'NONE',  ( 15.00000000000000400, -15.00000000000000000, 4.750000000000000000 ) ) ;
#59 = DIRECTION ( 'NONE',  ( 1.156482317317871500E-016, -1.000000000000000000, 0.0000000000000000000 ) ) ;
#60 = FACE_OUTER_BOUND ( 'NONE', #71, .T. ) ;
#61 = ADVANCED_BREP_SHAPE_REPRESENTATION ( 'Web Model 55257MX_48460', ( #234, #82 ), #40 ) ;
#62 = PERSON_AND_ORGANIZATION ( #134, #63 ) ;
#63 = ORGANIZATION ( 'UNSPECIFIED', 'UNSPECIFIED', '' ) ;
#64 = VERTEX_POINT ( 'NONE', #177 ) ;
#65 = ORIENTED_EDGE ( 'NONE', *, *, #56, .T. ) ;
#66 = PRODUCT ( 'Web Model 55257MX_48460', 'Web Model 55257MX_48460', '', ( #42 ) ) ;
#67 = CARTESIAN_POINT ( 'NONE',  ( 15.00000000000000400, 15.00000000000000200, 4.750000000000000000 ) ) ;
#68 = DATE_AND_TIME ( #99, #95 ) ;
#69 = CARTESIAN_POINT ( 'NONE',  ( 15.00000000000000400, -15.00000000000000000, 4.750000000000000000 ) ) ;
#70 = LINE ( 'NONE', #122, #84 ) ;
#71 = EDGE_LOOP ( 'NONE', ( #200, #198, #217, #2 ) ) ;
#72 = CARTESIAN_POINT ( 'NONE',  ( -15.00000000000000000, -15.00000000000000400, 4.750000000000000000 ) ) ;
#73 = EDGE_CURVE ( 'NONE', #125, #64, #117, .T. ) ;
#74 = LINE ( 'NONE', #67, #50 ) ;
#75 = APPROVAL_ROLE ( '' ) ;
#76 = APPLICATION_PROTOCOL_DEFINITION ( 'international standard', 'config_control_design', 1994, #174 ) ;
#77 = ADVANCED_FACE ( 'NONE', ( #155 ), #121, .F. ) ;
#78 = EDGE_CURVE ( 'NONE', #79, #44, #228, .T. ) ;
#79 = VERTEX_POINT ( 'NONE', #143 ) ;
#80 = CC_DESIGN_SECURITY_CLASSIFICATION ( #127, ( #182 ) ) ;
#81 = CC_DESIGN_APPROVAL ( #47, ( #25 ) ) ;
#82 = AXIS2_PLACEMENT_3D ( 'NONE', #187, #131, #126 ) ;
#83 = COORDINATED_UNIVERSAL_TIME_OFFSET ( 5, 0, .BEHIND. ) ;
#84 = VECTOR ( 'NONE', #55, 1000.000000000000000 ) ;
#85 = EDGE_LOOP ( 'NONE', ( #98, #237, #20, #225 ) ) ;
#86 = CARTESIAN_POINT ( 'NONE',  ( 15.00000000000000400, -15.00000000000000000, 4.750000000000000000 ) ) ;
#87 = DIRECTION ( 'NONE',  ( -0.0000000000000000000, -1.000000000000000000, -0.0000000000000000000 ) ) ;
#88 = CARTESIAN_POINT ( 'NONE',  ( -15.00000000000000000, 14.99999999999999800, 4.750000000000000000 ) ) ;
#89 = EDGE_CURVE ( 'NONE', #44, #130, #70, .T. ) ;
#90 = DIRECTION ( 'NONE',  ( -0.0000000000000000000, -0.0000000000000000000, -1.000000000000000000 ) ) ;
#91 = EDGE_LOOP ( 'NONE', ( #49, #46, #101, #136 ) ) ;
#92 = PERSON_AND_ORGANIZATION_ROLE ( 'creator' ) ;
#93 =( NAMED_UNIT ( * ) PLANE_ANGLE_UNIT ( ) SI_UNIT ( $, .RADIAN. ) );
#94 = CALENDAR_DATE ( 2017, 30, 10 ) ;
#95 = LOCAL_TIME ( 9, 17, 41.00000000000000000, #48 ) ;
#96 = CC_DESIGN_PERSON_AND_ORGANIZATION_ASSIGNMENT ( #224, #148, ( #25 ) ) ;
#97 = DIRECTION ( 'NONE',  ( 1.000000000000000000, 1.156482317317871500E-016, 0.0000000000000000000 ) ) ;
#98 = ORIENTED_EDGE ( 'NONE', *, *, #105, .T. ) ;
#99 = CALENDAR_DATE ( 2017, 30, 10 ) ;
#100 = LINE ( 'NONE', #86, #178 ) ;
#101 = ORIENTED_EDGE ( 'NONE', *, *, #78, .F. ) ;
#102 = VERTEX_POINT ( 'NONE', #21 ) ;
#103 = PRODUCT_RELATED_PRODUCT_CATEGORY ( 'detail', '', ( #66 ) ) ;
#104 = CARTESIAN_POINT ( 'NONE',  ( 0.0000000000000000000, 0.0000000000000000000, 4.750000000000000000 ) ) ;
#105 = EDGE_CURVE ( 'NONE', #64, #191, #207, .T. ) ;
#106 = DIRECTION ( 'NONE',  ( 1.000000000000000000, 0.0000000000000000000, -0.0000000000000000000 ) ) ;
#107 = CARTESIAN_POINT ( 'NONE',  ( 15.00000000000000400, -15.00000000000000000, -4.750000000000000000 ) ) ;
#108 = VECTOR ( 'NONE', #39, 1000.000000000000000 ) ;
#109 = VECTOR ( 'NONE', #205, 1000.000000000000000 ) ;
#110 = CC_DESIGN_PERSON_AND_ORGANIZATION_ASSIGNMENT ( #145, #92, ( #182 ) ) ;
#111 = DATE_AND_TIME ( #94, #194 ) ;
#112 = LINE ( 'NONE', #181, #109 ) ;
#113 = EDGE_CURVE ( 'NONE', #130, #191, #203, .T. ) ;
#114 = VECTOR ( 'NONE', #124, 1000.000000000000000 ) ;
#115 = EDGE_CURVE ( 'NONE', #130, #102, #100, .T. ) ;
#116 = CALENDAR_DATE ( 2017, 30, 10 ) ;
#117 = LINE ( 'NONE', #160, #28 ) ;
#118 = CALENDAR_DATE ( 2017, 30, 10 ) ;
#119 = DIRECTION ( 'NONE',  ( 0.0000000000000000000, -0.0000000000000000000, 1.000000000000000000 ) ) ;
#120 = PRODUCT_DEFINITION_SHAPE ( 'NONE', 'NONE',  #25 ) ;
#121 = PLANE ( 'NONE',  #192 ) ;
#122 = CARTESIAN_POINT ( 'NONE',  ( 15.00000000000000400, -15.00000000000000000, 4.750000000000000000 ) ) ;
#123 = CARTESIAN_POINT ( 'NONE',  ( -15.00000000000000000, -15.00000000000000400, 4.750000000000000000 ) ) ;
#124 = DIRECTION ( 'NONE',  ( -0.0000000000000000000, -0.0000000000000000000, -1.000000000000000000 ) ) ;
#125 = VERTEX_POINT ( 'NONE', #36 ) ;
#126 = DIRECTION ( 'NONE',  ( 1.000000000000000000, 0.0000000000000000000, 0.0000000000000000000 ) ) ;
#127 = SECURITY_CLASSIFICATION ( '', '', #171 ) ;
#128 = APPLICATION_PROTOCOL_DEFINITION ( 'international standard', 'config_control_design', 1994, #22 ) ;
#129 = ADVANCED_FACE ( 'NONE', ( #60 ), #18, .F. ) ;
#130 = VERTEX_POINT ( 'NONE', #69 ) ;
#131 = DIRECTION ( 'NONE',  ( 0.0000000000000000000, 0.0000000000000000000, 1.000000000000000000 ) ) ;
#132 = ORIENTED_EDGE ( 'NONE', *, *, #56, .F. ) ;
#133 = EDGE_CURVE ( 'NONE', #191, #12, #139, .T. ) ;
#134 = PERSON ( 'UNSPECIFIED', 'UNSPECIFIED', 'UNSPECIFIED', ('UNSPECIFIED'), ('UNSPECIFIED'), ('UNSPECIFIED') ) ;
#135 = CC_DESIGN_APPROVAL ( #201, ( #127 ) ) ;
#136 = ORIENTED_EDGE ( 'NONE', *, *, #208, .T. ) ;
#137 = EDGE_CURVE ( 'NONE', #44, #64, #169, .T. ) ;
#138 = APPROVAL_PERSON_ORGANIZATION ( #195, #47, #75 ) ;
#139 = LINE ( 'NONE', #107, #197 ) ;
#140 = SHAPE_DEFINITION_REPRESENTATION ( #120, #61 ) ;
#141 = CARTESIAN_POINT ( 'NONE',  ( -15.00000000000000000, -15.00000000000000400, 4.750000000000000000 ) ) ;
#142 = CLOSED_SHELL ( 'NONE', ( #193, #77, #176, #214, #156, #129 ) ) ;
#143 = CARTESIAN_POINT ( 'NONE',  ( -15.00000000000000000, 14.99999999999999800, 4.750000000000000000 ) ) ;
#144 = DIRECTION ( 'NONE',  ( 1.000000000000000000, 0.0000000000000000000, 0.0000000000000000000 ) ) ;
#145 = PERSON_AND_ORGANIZATION ( #134, #63 ) ;
#146 = DIRECTION ( 'NONE',  ( 0.0000000000000000000, 1.000000000000000000, 0.0000000000000000000 ) ) ;
#147 = APPROVAL_STATUS ( 'not_yet_approved' ) ;
#148 = PERSON_AND_ORGANIZATION_ROLE ( 'creator' ) ;
#149 = FACE_OUTER_BOUND ( 'NONE', #221, .T. ) ;
#150 = APPROVAL_PERSON_ORGANIZATION ( #62, #201, #168 ) ;
#151 = DATE_TIME_ROLE ( 'creation_date' ) ;
#152 = EDGE_LOOP ( 'NONE', ( #232, #19, #37, #65 ) ) ;
#153 = PERSON_AND_ORGANIZATION_ROLE ( 'design_owner' ) ;
#154 = APPROVAL_STATUS ( 'not_yet_approved' ) ;
#155 = FACE_OUTER_BOUND ( 'NONE', #85, .T. ) ;
#156 = ADVANCED_FACE ( 'NONE', ( #23 ), #219, .T. ) ;
#157 = CC_DESIGN_DATE_AND_TIME_ASSIGNMENT ( #213, #151, ( #25 ) ) ;
#158 = LINE ( 'NONE', #88, #108 ) ;
#159 = PERSON_AND_ORGANIZATION ( #134, #63 ) ;
#160 = CARTESIAN_POINT ( 'NONE',  ( -15.00000000000000000, -15.00000000000000400, -4.750000000000000000 ) ) ;
#161 = DIRECTION ( 'NONE',  ( -1.000000000000000000, -1.156482317317871500E-016, 0.0000000000000000000 ) ) ;
#162 = DIRECTION ( 'NONE',  ( 0.0000000000000000000, 0.0000000000000000000, 1.000000000000000000 ) ) ;
#163 = VECTOR ( 'NONE', #90, 1000.000000000000000 ) ;
#164 = CARTESIAN_POINT ( 'NONE',  ( 15.00000000000000400, -15.00000000000000000, 4.750000000000000000 ) ) ;
#165 = AXIS2_PLACEMENT_3D ( 'NONE', #72, #144, #57 ) ;
#166 = PLANE ( 'NONE',  #15 ) ;
#167 = DIRECTION ( 'NONE',  ( 1.000000000000000000, 0.0000000000000000000, -0.0000000000000000000 ) ) ;
#168 = APPROVAL_ROLE ( '' ) ;
#169 = LINE ( 'NONE', #141, #163 ) ;
#170 = LOCAL_TIME ( 9, 17, 41.00000000000000000, #32 ) ;
#171 = SECURITY_CLASSIFICATION_LEVEL ( 'unclassified' ) ;
#172 = DATE_AND_TIME ( #196, #211 ) ;
#173 = APPROVAL_STATUS ( 'not_yet_approved' ) ;
#174 = APPLICATION_CONTEXT ( 'configuration controlled 3d designs of mechanical parts and assemblies' ) ;
#175 = VECTOR ( 'NONE', #206, 1000.000000000000000 ) ;
#176 = ADVANCED_FACE ( 'NONE', ( #149 ), #166, .F. ) ;
#177 = CARTESIAN_POINT ( 'NONE',  ( -15.00000000000000000, -15.00000000000000400, -4.750000000000000000 ) ) ;
#178 = VECTOR ( 'NONE', #146, 1000.000000000000000 ) ;
#179 = ORIENTED_EDGE ( 'NONE', *, *, #188, .T. ) ;
#180 = CARTESIAN_POINT ( 'NONE',  ( -15.00000000000000000, -15.00000000000000400, 4.750000000000000000 ) ) ;
#181 = CARTESIAN_POINT ( 'NONE',  ( 15.00000000000000400, 15.00000000000000200, 4.750000000000000000 ) ) ;
#182 = PRODUCT_DEFINITION_FORMATION_WITH_SPECIFIED_SOURCE ( 'ANY', '', #66, .NOT_KNOWN. ) ;
#183 = DIRECTION ( 'NONE',  ( 0.0000000000000000000, -0.0000000000000000000, 1.000000000000000000 ) ) ;
#184 = PLANE ( 'NONE',  #51 ) ;
#185 = CARTESIAN_POINT ( 'NONE',  ( 0.0000000000000000000, 0.0000000000000000000, -4.750000000000000000 ) ) ;
#186 = ORIENTED_EDGE ( 'NONE', *, *, #78, .T. ) ;
#187 = CARTESIAN_POINT ( 'NONE',  ( 0.0000000000000000000, 0.0000000000000000000, 0.0000000000000000000 ) ) ;
#188 = EDGE_CURVE ( 'NONE', #102, #79, #112, .T. ) ;
#189 =( NAMED_UNIT ( * ) SI_UNIT ( $, .STERADIAN. ) SOLID_ANGLE_UNIT ( ) );
#190 = APPROVAL_DATE_TIME ( #68, #201 ) ;
#191 = VERTEX_POINT ( 'NONE', #222 ) ;
#192 = AXIS2_PLACEMENT_3D ( 'NONE', #58, #54, #161 ) ;
#193 = ADVANCED_FACE ( 'NONE', ( #53 ), #204, .F. ) ;
#194 = LOCAL_TIME ( 9, 17, 41.00000000000000000, #226 ) ;
#195 = PERSON_AND_ORGANIZATION ( #134, #63 ) ;
#196 = CALENDAR_DATE ( 2017, 30, 10 ) ;
#197 = VECTOR ( 'NONE', #4, 1000.000000000000000 ) ;
#198 = ORIENTED_EDGE ( 'NONE', *, *, #5, .F. ) ;
#199 = CC_DESIGN_PERSON_AND_ORGANIZATION_ASSIGNMENT ( #159, #210, ( #127 ) ) ;
#200 = ORIENTED_EDGE ( 'NONE', *, *, #73, .F. ) ;
#201 = APPROVAL ( #173, 'UNSPECIFIED' ) ;
#202 = AXIS2_PLACEMENT_3D ( 'NONE', #104, #119, #106 ) ;
#203 = LINE ( 'NONE', #7, #114 ) ;
#204 = PLANE ( 'NONE',  #165 ) ;
#205 = DIRECTION ( 'NONE',  ( -1.000000000000000000, -1.156482317317871500E-016, 0.0000000000000000000 ) ) ;
#206 = DIRECTION ( 'NONE',  ( 1.000000000000000000, 1.156482317317871500E-016, -0.0000000000000000000 ) ) ;
#207 = LINE ( 'NONE', #223, #175 ) ;
#208 = EDGE_CURVE ( 'NONE', #79, #125, #158, .T. ) ;
#209 = VECTOR ( 'NONE', #17, 1000.000000000000000 ) ;
#210 = PERSON_AND_ORGANIZATION_ROLE ( 'classification_officer' ) ;
#211 = LOCAL_TIME ( 9, 17, 41.00000000000000000, #29 ) ;
#212 = APPROVAL ( #154, 'UNSPECIFIED' ) ;
#213 = DATE_AND_TIME ( #116, #30 ) ;
#214 = ADVANCED_FACE ( 'NONE', ( #236 ), #184, .F. ) ;
#215 = DIRECTION ( 'NONE',  ( -0.0000000000000000000, -0.0000000000000000000, -1.000000000000000000 ) ) ;
#216 = APPROVAL_DATE_TIME ( #172, #212 ) ;
#217 = ORIENTED_EDGE ( 'NONE', *, *, #133, .F. ) ;
#218 = PERSON_AND_ORGANIZATION ( #134, #63 ) ;
#219 = PLANE ( 'NONE',  #202 ) ;
#220 = CC_DESIGN_APPROVAL ( #212, ( #182 ) ) ;
#221 = EDGE_LOOP ( 'NONE', ( #33, #132, #41, #14 ) ) ;
#222 = CARTESIAN_POINT ( 'NONE',  ( 15.00000000000000400, -15.00000000000000000, -4.750000000000000000 ) ) ;
#223 = CARTESIAN_POINT ( 'NONE',  ( 15.00000000000000400, -15.00000000000000000, -4.750000000000000000 ) ) ;
#224 = PERSON_AND_ORGANIZATION ( #134, #63 ) ;
#225 = ORIENTED_EDGE ( 'NONE', *, *, #137, .T. ) ;
#226 = COORDINATED_UNIVERSAL_TIME_OFFSET ( 5, 0, .BEHIND. ) ;
#227 = AXIS2_PLACEMENT_3D ( 'NONE', #185, #183, #167 ) ;
#228 = LINE ( 'NONE', #123, #45 ) ;
#229 = UNCERTAINTY_MEASURE_WITH_UNIT (LENGTH_MEASURE( 1.000000000000000100E-005 ), #9, 'distance_accuracy_value', 'NONE');
#230 = CC_DESIGN_DATE_AND_TIME_ASSIGNMENT ( #1, #43, ( #127 ) ) ;
#231 = APPROVAL_DATE_TIME ( #111, #47 ) ;
#232 = ORIENTED_EDGE ( 'NONE', *, *, #5, .T. ) ;
#233 = PERSON_AND_ORGANIZATION ( #134, #63 ) ;
#234 = MANIFOLD_SOLID_BREP ( 'Boss-Extrude1', #142 ) ;
#235 = CARTESIAN_POINT ( 'NONE',  ( 15.00000000000000400, 15.00000000000000200, -4.750000000000000000 ) ) ;
#236 = FACE_OUTER_BOUND ( 'NONE', #152, .T. ) ;
#237 = ORIENTED_EDGE ( 'NONE', *, *, #113, .F. ) ;
ENDSEC;
END-ISO-10303-21;
