ISO-10303-21;
HEADER;
FILE_DESCRIPTION (( 'STEP AP203' ),
    '1' );
FILE_NAME ('Web Model 68411.STEP',
    '2017-01-31T19:59:07',
    ( '' ),
    ( '' ),
    'SwSTEP 2.0',
    'SolidWorks 2016',
    '' );
FILE_SCHEMA (( 'CONFIG_CONTROL_DESIGN' ));
ENDSEC;

DATA;
#1 = FACE_OUTER_BOUND ( 'NONE', #148, .T. ) ;
#2 = MECHANICAL_CONTEXT ( 'NONE', #237, 'mechanical' ) ;
#3 = ORIENTED_EDGE ( 'NONE', *, *, #228, .T. ) ;
#4 = CARTESIAN_POINT ( 'NONE',  ( 24.99999999999999600, 25.00000000000001100, 0.0000000000000000000 ) ) ;
#5 = COORDINATED_UNIVERSAL_TIME_OFFSET ( 5, 0, .BEHIND. ) ;
#6 = EDGE_CURVE ( 'NONE', #11, #46, #202, .T. ) ;
#7 = DIRECTION ( 'NONE',  ( 1.000000000000000000, 1.387778780781445400E-016, -0.0000000000000000000 ) ) ;
#8 = DIRECTION ( 'NONE',  ( 1.387778780781445400E-016, -1.000000000000000000, 0.0000000000000000000 ) ) ;
#9 = FACE_OUTER_BOUND ( 'NONE', #152, .T. ) ;
#10 = ORIENTED_EDGE ( 'NONE', *, *, #38, .T. ) ;
#11 = VERTEX_POINT ( 'NONE', #131 ) ;
#12 = ORIENTED_EDGE ( 'NONE', *, *, #228, .F. ) ;
#13 = EDGE_CURVE ( 'NONE', #97, #225, #121, .T. ) ;
#14 = DIRECTION ( 'NONE',  ( -1.000000000000000000, -1.387778780781445700E-016, 0.0000000000000000000 ) ) ;
#15 = APPROVAL_ROLE ( '' ) ;
#16 = DIRECTION ( 'NONE',  ( -0.0000000000000000000, -0.0000000000000000000, -1.000000000000000000 ) ) ;
#17 = DIRECTION ( 'NONE',  ( -1.000000000000000000, 0.0000000000000000000, -0.0000000000000000000 ) ) ;
#18 = CC_DESIGN_PERSON_AND_ORGANIZATION_ASSIGNMENT ( #65, #203, ( #149 ) ) ;
#19 = CARTESIAN_POINT ( 'NONE',  ( 24.99999999999999600, 25.00000000000001100, 3.000000000000000000 ) ) ;
#20 = DIRECTION ( 'NONE',  ( -1.000000000000000000, -2.081668171172168300E-016, 0.0000000000000000000 ) ) ;
#21 = ADVANCED_FACE ( 'NONE', ( #1 ), #224, .T. ) ;
#22 = PERSON_AND_ORGANIZATION ( #103, #235 ) ;
#23 = FACE_OUTER_BOUND ( 'NONE', #179, .T. ) ;
#24 = ADVANCED_BREP_SHAPE_REPRESENTATION ( 'Web Model 68411', ( #45, #112 ), #81 ) ;
#25 = CALENDAR_DATE ( 2017, 31, 1 ) ;
#26 = VECTOR ( 'NONE', #14, 1000.000000000000000 ) ;
#27 = ORIENTED_EDGE ( 'NONE', *, *, #6, .T. ) ;
#28 = SECURITY_CLASSIFICATION ( '', '', #181 ) ;
#29 = LINE ( 'NONE', #33, #218 ) ;
#30 =( NAMED_UNIT ( * ) PLANE_ANGLE_UNIT ( ) SI_UNIT ( $, .RADIAN. ) );
#31 = LOCAL_TIME ( 14, 59, 7.000000000000000000, #137 ) ;
#32 = AXIS2_PLACEMENT_3D ( 'NONE', #64, #20, #62 ) ;
#33 = CARTESIAN_POINT ( 'NONE',  ( 24.99999999999999600, 25.00000000000001100, 3.000000000000000000 ) ) ;
#34 = ORIENTED_EDGE ( 'NONE', *, *, #6, .F. ) ;
#35 = DIRECTION ( 'NONE',  ( 0.0000000000000000000, 0.0000000000000000000, -1.000000000000000000 ) ) ;
#36 = CARTESIAN_POINT ( 'NONE',  ( -24.99999999999999300, -25.00000000000000000, 3.000000000000000000 ) ) ;
#37 = CARTESIAN_POINT ( 'NONE',  ( 25.00000000000000700, -24.99999999999999300, 0.0000000000000000000 ) ) ;
#38 = EDGE_CURVE ( 'NONE', #225, #11, #155, .T. ) ;
#39 = LINE ( 'NONE', #89, #26 ) ;
#40 = EDGE_CURVE ( 'NONE', #126, #225, #140, .T. ) ;
#41 = DIRECTION ( 'NONE',  ( -1.387778780781445400E-016, 1.000000000000000000, 0.0000000000000000000 ) ) ;
#42 = CARTESIAN_POINT ( 'NONE',  ( 24.99999999999999600, 25.00000000000001100, 3.000000000000000000 ) ) ;
#43 = CC_DESIGN_PERSON_AND_ORGANIZATION_ASSIGNMENT ( #198, #236, ( #28 ) ) ;
#44 = LINE ( 'NONE', #170, #169 ) ;
#45 = MANIFOLD_SOLID_BREP ( 'Extrude1', #61 ) ;
#46 = VERTEX_POINT ( 'NONE', #4 ) ;
#47 = PERSON_AND_ORGANIZATION ( #103, #235 ) ;
#48 = ORIENTED_EDGE ( 'NONE', *, *, #154, .T. ) ;
#49 = EDGE_CURVE ( 'NONE', #97, #234, #212, .T. ) ;
#50 = APPLICATION_CONTEXT ( 'configuration controlled 3d designs of mechanical parts and assemblies' ) ;
#51 = DATE_AND_TIME ( #25, #31 ) ;
#52 = AXIS2_PLACEMENT_3D ( 'NONE', #36, #114, #134 ) ;
#53 = DATE_TIME_ROLE ( 'classification_date' ) ;
#54 = DIRECTION ( 'NONE',  ( -2.081668171172168500E-016, 1.000000000000000000, -0.0000000000000000000 ) ) ;
#55 = CARTESIAN_POINT ( 'NONE',  ( -25.00000000000000000, 25.00000000000000400, 0.0000000000000000000 ) ) ;
#56 = ORIENTED_EDGE ( 'NONE', *, *, #74, .F. ) ;
#57 = CC_DESIGN_DATE_AND_TIME_ASSIGNMENT ( #162, #53, ( #28 ) ) ;
#58 = CARTESIAN_POINT ( 'NONE',  ( -24.99999999999999300, -25.00000000000000000, 3.000000000000000000 ) ) ;
#59 = CARTESIAN_POINT ( 'NONE',  ( 25.00000000000000700, -24.99999999999999300, 3.000000000000000000 ) ) ;
#60 = VECTOR ( 'NONE', #173, 1000.000000000000000 ) ;
#61 = CLOSED_SHELL ( 'NONE', ( #86, #118, #100, #172, #63, #21 ) ) ;
#62 = DIRECTION ( 'NONE',  ( 2.081668171172168300E-016, -1.000000000000000000, 0.0000000000000000000 ) ) ;
#63 = ADVANCED_FACE ( 'NONE', ( #197 ), #78, .F. ) ;
#64 = CARTESIAN_POINT ( 'NONE',  ( 24.99999999999999600, 25.00000000000001100, 3.000000000000000000 ) ) ;
#65 = PERSON_AND_ORGANIZATION ( #103, #235 ) ;
#66 = ORIENTED_EDGE ( 'NONE', *, *, #82, .F. ) ;
#67 = CC_DESIGN_APPROVAL ( #214, ( #167 ) ) ;
#68 =( LENGTH_UNIT ( ) NAMED_UNIT ( * ) SI_UNIT ( .MILLI., .METRE. ) );
#69 = PERSON_AND_ORGANIZATION_ROLE ( 'creator' ) ;
#70 = PERSON_AND_ORGANIZATION ( #103, #235 ) ;
#71 = DATE_TIME_ROLE ( 'creation_date' ) ;
#72 = LINE ( 'NONE', #19, #130 ) ;
#73 =( NAMED_UNIT ( * ) SI_UNIT ( $, .STERADIAN. ) SOLID_ANGLE_UNIT ( ) );
#74 = EDGE_CURVE ( 'NONE', #234, #88, #72, .T. ) ;
#75 = DATE_AND_TIME ( #123, #216 ) ;
#76 = ORIENTED_EDGE ( 'NONE', *, *, #49, .T. ) ;
#77 = DIRECTION ( 'NONE',  ( 1.000000000000000000, 1.387778780781445700E-016, -0.0000000000000000000 ) ) ;
#78 = PLANE ( 'NONE',  #52 ) ;
#79 = VECTOR ( 'NONE', #227, 1000.000000000000000 ) ;
#80 = DIRECTION ( 'NONE',  ( 1.387778780781445700E-016, -1.000000000000000000, 0.0000000000000000000 ) ) ;
#81 =( GEOMETRIC_REPRESENTATION_CONTEXT ( 3 ) GLOBAL_UNCERTAINTY_ASSIGNED_CONTEXT ( ( #144 ) ) GLOBAL_UNIT_ASSIGNED_CONTEXT ( ( #68, #30, #73 ) ) REPRESENTATION_CONTEXT ( 'NONE', 'WORKASPACE' ) );
#82 = EDGE_CURVE ( 'NONE', #106, #97, #94, .T. ) ;
#83 = CARTESIAN_POINT ( 'NONE',  ( -25.00000000000000000, 25.00000000000000400, 0.0000000000000000000 ) ) ;
#84 = PLANE ( 'NONE',  #102 ) ;
#85 = VECTOR ( 'NONE', #77, 1000.000000000000000 ) ;
#86 = ADVANCED_FACE ( 'NONE', ( #9 ), #171, .F. ) ;
#87 = VECTOR ( 'NONE', #166, 1000.000000000000000 ) ;
#88 = VERTEX_POINT ( 'NONE', #99 ) ;
#89 = CARTESIAN_POINT ( 'NONE',  ( 24.99999999999999600, 25.00000000000001100, 0.0000000000000000000 ) ) ;
#90 = ORIENTED_EDGE ( 'NONE', *, *, #82, .T. ) ;
#91 = PERSON_AND_ORGANIZATION_ROLE ( 'design_owner' ) ;
#92 = DIRECTION ( 'NONE',  ( 1.000000000000000000, 0.0000000000000000000, 0.0000000000000000000 ) ) ;
#93 = APPROVAL_DATE_TIME ( #215, #160 ) ;
#94 = LINE ( 'NONE', #206, #115 ) ;
#95 = ORIENTED_EDGE ( 'NONE', *, *, #180, .F. ) ;
#96 = CALENDAR_DATE ( 2017, 31, 1 ) ;
#97 = VERTEX_POINT ( 'NONE', #156 ) ;
#98 = APPROVAL ( #200, 'UNSPECIFIED' ) ;
#99 = CARTESIAN_POINT ( 'NONE',  ( 24.99999999999999600, 25.00000000000001100, 3.000000000000000000 ) ) ;
#100 = ADVANCED_FACE ( 'NONE', ( #110 ), #136, .F. ) ;
#101 = CARTESIAN_POINT ( 'NONE',  ( 25.00000000000000700, -24.99999999999999300, 3.000000000000000000 ) ) ;
#102 = AXIS2_PLACEMENT_3D ( 'NONE', #59, #41, #208 ) ;
#103 = PERSON ( 'UNSPECIFIED', 'UNSPECIFIED', 'UNSPECIFIED', ('UNSPECIFIED'), ('UNSPECIFIED'), ('UNSPECIFIED') ) ;
#104 = ORIENTED_EDGE ( 'NONE', *, *, #38, .F. ) ;
#105 = CC_DESIGN_PERSON_AND_ORGANIZATION_ASSIGNMENT ( #233, #91, ( #210 ) ) ;
#106 = VERTEX_POINT ( 'NONE', #153 ) ;
#107 = APPROVAL_ROLE ( '' ) ;
#108 = CC_DESIGN_APPROVAL ( #98, ( #28 ) ) ;
#109 = DIRECTION ( 'NONE',  ( -0.0000000000000000000, -0.0000000000000000000, -1.000000000000000000 ) ) ;
#110 = FACE_OUTER_BOUND ( 'NONE', #157, .T. ) ;
#111 = APPROVAL_DATE_TIME ( #51, #98 ) ;
#112 = AXIS2_PLACEMENT_3D ( 'NONE', #221, #127, #92 ) ;
#113 = CARTESIAN_POINT ( 'NONE',  ( 24.99999999999999600, 25.00000000000001100, 0.0000000000000000000 ) ) ;
#114 = DIRECTION ( 'NONE',  ( 0.0000000000000000000, 0.0000000000000000000, -1.000000000000000000 ) ) ;
#115 = VECTOR ( 'NONE', #80, 1000.000000000000000 ) ;
#116 = ORIENTED_EDGE ( 'NONE', *, *, #231, .T. ) ;
#117 = PLANE ( 'NONE',  #189 ) ;
#118 = ADVANCED_FACE ( 'NONE', ( #158 ), #84, .F. ) ;
#119 = APPROVAL_PERSON_ORGANIZATION ( #22, #160, #129 ) ;
#120 = ORIENTED_EDGE ( 'NONE', *, *, #40, .F. ) ;
#121 = LINE ( 'NONE', #58, #230 ) ;
#122 = CC_DESIGN_PERSON_AND_ORGANIZATION_ASSIGNMENT ( #222, #124, ( #167 ) ) ;
#123 = CALENDAR_DATE ( 2017, 31, 1 ) ;
#124 = PERSON_AND_ORGANIZATION_ROLE ( 'creator' ) ;
#125 = LINE ( 'NONE', #101, #79 ) ;
#126 = VERTEX_POINT ( 'NONE', #83 ) ;
#127 = DIRECTION ( 'NONE',  ( 0.0000000000000000000, 0.0000000000000000000, 1.000000000000000000 ) ) ;
#128 = AXIS2_PLACEMENT_3D ( 'NONE', #193, #7, #138 ) ;
#129 = APPROVAL_ROLE ( '' ) ;
#130 = VECTOR ( 'NONE', #54, 1000.000000000000000 ) ;
#131 = CARTESIAN_POINT ( 'NONE',  ( 25.00000000000000700, -24.99999999999999300, 0.0000000000000000000 ) ) ;
#132 = CC_DESIGN_SECURITY_CLASSIFICATION ( #28, ( #149 ) ) ;
#133 = ORIENTED_EDGE ( 'NONE', *, *, #209, .F. ) ;
#134 = DIRECTION ( 'NONE',  ( -1.000000000000000000, 0.0000000000000000000, -0.0000000000000000000 ) ) ;
#135 = ORIENTED_EDGE ( 'NONE', *, *, #74, .T. ) ;
#136 = PLANE ( 'NONE',  #32 ) ;
#137 = COORDINATED_UNIVERSAL_TIME_OFFSET ( 5, 0, .BEHIND. ) ;
#138 = DIRECTION ( 'NONE',  ( -1.387778780781445400E-016, 1.000000000000000000, 0.0000000000000000000 ) ) ;
#139 = DIRECTION ( 'NONE',  ( 1.000000000000000000, 1.387778780781445400E-016, 0.0000000000000000000 ) ) ;
#140 = LINE ( 'NONE', #55, #163 ) ;
#141 = CC_DESIGN_DATE_AND_TIME_ASSIGNMENT ( #75, #71, ( #167 ) ) ;
#142 = ORIENTED_EDGE ( 'NONE', *, *, #180, .T. ) ;
#143 = APPROVAL_DATE_TIME ( #192, #214 ) ;
#144 = UNCERTAINTY_MEASURE_WITH_UNIT (LENGTH_MEASURE( 1.000000000000000100E-005 ), #68, 'distance_accuracy_value', 'NONE');
#145 = CALENDAR_DATE ( 2017, 31, 1 ) ;
#146 = PRODUCT_RELATED_PRODUCT_CATEGORY ( 'detail', '', ( #210 ) ) ;
#147 = APPROVAL_STATUS ( 'not_yet_approved' ) ;
#148 = EDGE_LOOP ( 'NONE', ( #120, #12, #34, #104 ) ) ;
#149 = PRODUCT_DEFINITION_FORMATION_WITH_SPECIFIED_SOURCE ( 'ANY', '', #210, .NOT_KNOWN. ) ;
#150 = AXIS2_PLACEMENT_3D ( 'NONE', #207, #35, #17 ) ;
#151 = COORDINATED_UNIVERSAL_TIME_OFFSET ( 5, 0, .BEHIND. ) ;
#152 = EDGE_LOOP ( 'NONE', ( #220, #176, #66, #182 ) ) ;
#153 = CARTESIAN_POINT ( 'NONE',  ( -25.00000000000000000, 25.00000000000000400, 3.000000000000000000 ) ) ;
#154 = EDGE_CURVE ( 'NONE', #234, #11, #125, .T. ) ;
#155 = LINE ( 'NONE', #37, #87 ) ;
#156 = CARTESIAN_POINT ( 'NONE',  ( -24.99999999999999300, -25.00000000000000000, 3.000000000000000000 ) ) ;
#157 = EDGE_LOOP ( 'NONE', ( #27, #217, #56, #48 ) ) ;
#158 = FACE_OUTER_BOUND ( 'NONE', #199, .T. ) ;
#159 = PERSON_AND_ORGANIZATION ( #103, #235 ) ;
#160 = APPROVAL ( #147, 'UNSPECIFIED' ) ;
#161 = CARTESIAN_POINT ( 'NONE',  ( -24.99999999999999300, -25.00000000000000000, 0.0000000000000000000 ) ) ;
#162 = DATE_AND_TIME ( #201, #211 ) ;
#163 = VECTOR ( 'NONE', #190, 1000.000000000000000 ) ;
#164 = APPLICATION_PROTOCOL_DEFINITION ( 'international standard', 'config_control_design', 1994, #237 ) ;
#165 = COORDINATED_UNIVERSAL_TIME_OFFSET ( 5, 0, .BEHIND. ) ;
#166 = DIRECTION ( 'NONE',  ( 1.000000000000000000, 1.387778780781445700E-016, -0.0000000000000000000 ) ) ;
#167 = PRODUCT_DEFINITION ( 'UNKNOWN', '', #149, #226 ) ;
#168 = CARTESIAN_POINT ( 'NONE',  ( 25.00000000000000700, -24.99999999999999300, 3.000000000000000000 ) ) ;
#169 = VECTOR ( 'NONE', #16, 1000.000000000000000 ) ;
#170 = CARTESIAN_POINT ( 'NONE',  ( -25.00000000000000000, 25.00000000000000400, 3.000000000000000000 ) ) ;
#171 = PLANE ( 'NONE',  #128 ) ;
#172 = ADVANCED_FACE ( 'NONE', ( #23 ), #117, .F. ) ;
#173 = DIRECTION ( 'NONE',  ( -1.000000000000000000, -1.387778780781445700E-016, 0.0000000000000000000 ) ) ;
#174 = CC_DESIGN_APPROVAL ( #160, ( #149 ) ) ;
#175 = COORDINATED_UNIVERSAL_TIME_OFFSET ( 5, 0, .BEHIND. ) ;
#176 = ORIENTED_EDGE ( 'NONE', *, *, #13, .F. ) ;
#177 = EDGE_LOOP ( 'NONE', ( #90, #76, #135, #142 ) ) ;
#178 = VECTOR ( 'NONE', #191, 1000.000000000000000 ) ;
#179 = EDGE_LOOP ( 'NONE', ( #3, #133, #95, #116 ) ) ;
#180 = EDGE_CURVE ( 'NONE', #88, #106, #194, .T. ) ;
#181 = SECURITY_CLASSIFICATION_LEVEL ( 'unclassified' ) ;
#182 = ORIENTED_EDGE ( 'NONE', *, *, #209, .T. ) ;
#183 = APPROVAL_STATUS ( 'not_yet_approved' ) ;
#184 = CARTESIAN_POINT ( 'NONE',  ( 25.00000000000000700, -24.99999999999999300, 3.000000000000000000 ) ) ;
#185 = APPROVAL_PERSON_ORGANIZATION ( #159, #98, #15 ) ;
#186 = APPROVAL_PERSON_ORGANIZATION ( #47, #214, #107 ) ;
#187 = DIRECTION ( 'NONE',  ( -0.0000000000000000000, -0.0000000000000000000, -1.000000000000000000 ) ) ;
#188 = ORIENTED_EDGE ( 'NONE', *, *, #13, .T. ) ;
#189 = AXIS2_PLACEMENT_3D ( 'NONE', #42, #8, #139 ) ;
#190 = DIRECTION ( 'NONE',  ( 1.387778780781445700E-016, -1.000000000000000000, 0.0000000000000000000 ) ) ;
#191 = DIRECTION ( 'NONE',  ( -2.081668171172168500E-016, 1.000000000000000000, -0.0000000000000000000 ) ) ;
#192 = DATE_AND_TIME ( #145, #196 ) ;
#193 = CARTESIAN_POINT ( 'NONE',  ( -25.00000000000000000, 25.00000000000000400, 3.000000000000000000 ) ) ;
#194 = LINE ( 'NONE', #229, #60 ) ;
#195 = LOCAL_TIME ( 14, 59, 7.000000000000000000, #175 ) ;
#196 = LOCAL_TIME ( 14, 59, 7.000000000000000000, #5 ) ;
#197 = FACE_OUTER_BOUND ( 'NONE', #177, .T. ) ;
#198 = PERSON_AND_ORGANIZATION ( #103, #235 ) ;
#199 = EDGE_LOOP ( 'NONE', ( #10, #232, #213, #188 ) ) ;
#200 = APPROVAL_STATUS ( 'not_yet_approved' ) ;
#201 = CALENDAR_DATE ( 2017, 31, 1 ) ;
#202 = LINE ( 'NONE', #113, #178 ) ;
#203 = PERSON_AND_ORGANIZATION_ROLE ( 'design_supplier' ) ;
#204 = PRODUCT_DEFINITION_SHAPE ( 'NONE', 'NONE',  #167 ) ;
#205 = SHAPE_DEFINITION_REPRESENTATION ( #204, #24 ) ;
#206 = CARTESIAN_POINT ( 'NONE',  ( -25.00000000000000000, 25.00000000000000400, 3.000000000000000000 ) ) ;
#207 = CARTESIAN_POINT ( 'NONE',  ( -24.99999999999999300, -25.00000000000000000, 0.0000000000000000000 ) ) ;
#208 = DIRECTION ( 'NONE',  ( -1.000000000000000000, -1.387778780781445400E-016, 0.0000000000000000000 ) ) ;
#209 = EDGE_CURVE ( 'NONE', #106, #126, #44, .T. ) ;
#210 = PRODUCT ( 'Web Model 68411', 'Web Model 68411', '', ( #2 ) ) ;
#211 = LOCAL_TIME ( 14, 59, 7.000000000000000000, #151 ) ;
#212 = LINE ( 'NONE', #168, #85 ) ;
#213 = ORIENTED_EDGE ( 'NONE', *, *, #49, .F. ) ;
#214 = APPROVAL ( #183, 'UNSPECIFIED' ) ;
#215 = DATE_AND_TIME ( #96, #195 ) ;
#216 = LOCAL_TIME ( 14, 59, 7.000000000000000000, #165 ) ;
#217 = ORIENTED_EDGE ( 'NONE', *, *, #231, .F. ) ;
#218 = VECTOR ( 'NONE', #109, 1000.000000000000000 ) ;
#219 = APPLICATION_PROTOCOL_DEFINITION ( 'international standard', 'config_control_design', 1994, #50 ) ;
#220 = ORIENTED_EDGE ( 'NONE', *, *, #40, .T. ) ;
#221 = CARTESIAN_POINT ( 'NONE',  ( 0.0000000000000000000, 0.0000000000000000000, 0.0000000000000000000 ) ) ;
#222 = PERSON_AND_ORGANIZATION ( #103, #235 ) ;
#223 = CC_DESIGN_PERSON_AND_ORGANIZATION_ASSIGNMENT ( #70, #69, ( #149 ) ) ;
#224 = PLANE ( 'NONE',  #150 ) ;
#225 = VERTEX_POINT ( 'NONE', #161 ) ;
#226 = DESIGN_CONTEXT ( 'detailed design', #50, 'design' ) ;
#227 = DIRECTION ( 'NONE',  ( -0.0000000000000000000, -0.0000000000000000000, -1.000000000000000000 ) ) ;
#228 = EDGE_CURVE ( 'NONE', #46, #126, #39, .T. ) ;
#229 = CARTESIAN_POINT ( 'NONE',  ( 24.99999999999999600, 25.00000000000001100, 3.000000000000000000 ) ) ;
#230 = VECTOR ( 'NONE', #187, 1000.000000000000000 ) ;
#231 = EDGE_CURVE ( 'NONE', #88, #46, #29, .T. ) ;
#232 = ORIENTED_EDGE ( 'NONE', *, *, #154, .F. ) ;
#233 = PERSON_AND_ORGANIZATION ( #103, #235 ) ;
#234 = VERTEX_POINT ( 'NONE', #184 ) ;
#235 = ORGANIZATION ( 'UNSPECIFIED', 'UNSPECIFIED', '' ) ;
#236 = PERSON_AND_ORGANIZATION_ROLE ( 'classification_officer' ) ;
#237 = APPLICATION_CONTEXT ( 'configuration controlled 3d designs of mechanical parts and assemblies' ) ;
ENDSEC;
END-ISO-10303-21;
