ISO-10303-21;
HEADER;
FILE_DESCRIPTION (( 'STEP AP203' ),
    '1' );
FILE_NAME ('Web Model 46609_46610.step',
    '2017-04-10T17:57:30',
    ( '' ),
    ( '' ),
    'SwSTEP 2.0',
    'SolidWorks 2016',
    '' );
FILE_SCHEMA (( 'CONFIG_CONTROL_DESIGN' ));
ENDSEC;

DATA;
#1 = ADVANCED_FACE ( 'NONE', ( #168 ), #123, .F. ) ;
#2 = DIRECTION ( 'NONE',  ( -0.0000000000000000000, -0.0000000000000000000, -1.000000000000000000 ) ) ;
#3 = LINE ( 'NONE', #19, #132 ) ;
#4 = MANIFOLD_SOLID_BREP ( 'Boss-Extrude1', #52 ) ;
#5 = LINE ( 'NONE', #94, #131 ) ;
#6 = CARTESIAN_POINT ( 'NONE',  ( -17.50000000000000000, -17.50000000000000000, 0.5000000000000000000 ) ) ;
#7 = PERSON_AND_ORGANIZATION_ROLE ( 'design_supplier' ) ;
#8 = CARTESIAN_POINT ( 'NONE',  ( -17.50000000000000000, 17.50000000000000000, -0.5000000000000000000 ) ) ;
#9 = APPROVAL_PERSON_ORGANIZATION ( #117, #233, #232 ) ;
#10 = VECTOR ( 'NONE', #153, 1000.000000000000000 ) ;
#11 = DATE_AND_TIME ( #180, #33 ) ;
#12 = FACE_OUTER_BOUND ( 'NONE', #70, .T. ) ;
#13 = CARTESIAN_POINT ( 'NONE',  ( 17.50000000000000000, -17.50000000000000000, 0.5000000000000000000 ) ) ;
#14 = EDGE_CURVE ( 'NONE', #37, #95, #164, .T. ) ;
#15 = CARTESIAN_POINT ( 'NONE',  ( 0.0000000000000000000, 0.0000000000000000000, -0.5000000000000000000 ) ) ;
#16 = APPROVAL_PERSON_ORGANIZATION ( #218, #236, #225 ) ;
#17 = CARTESIAN_POINT ( 'NONE',  ( 17.50000000000000000, 17.50000000000000000, 0.5000000000000000000 ) ) ;
#18 = ORIENTED_EDGE ( 'NONE', *, *, #14, .F. ) ;
#19 = CARTESIAN_POINT ( 'NONE',  ( -17.50000000000000000, 17.50000000000000000, 0.5000000000000000000 ) ) ;
#20 = FACE_OUTER_BOUND ( 'NONE', #156, .T. ) ;
#21 = PERSON_AND_ORGANIZATION ( #23, #175 ) ;
#22 = PERSON_AND_ORGANIZATION_ROLE ( 'creator' ) ;
#23 = PERSON ( 'UNSPECIFIED', 'UNSPECIFIED', 'UNSPECIFIED', ('UNSPECIFIED'), ('UNSPECIFIED'), ('UNSPECIFIED') ) ;
#24 = PLANE ( 'NONE',  #154 ) ;
#25 = EDGE_CURVE ( 'NONE', #86, #76, #192, .T. ) ;
#26 = AXIS2_PLACEMENT_3D ( 'NONE', #17, #224, #169 ) ;
#27 = DIRECTION ( 'NONE',  ( 1.000000000000000000, 0.0000000000000000000, 0.0000000000000000000 ) ) ;
#28 = APPROVAL_DATE_TIME ( #67, #187 ) ;
#29 = CARTESIAN_POINT ( 'NONE',  ( 0.0000000000000000000, 0.0000000000000000000, 0.0000000000000000000 ) ) ;
#30 = DIRECTION ( 'NONE',  ( 0.0000000000000000000, -0.0000000000000000000, -1.000000000000000000 ) ) ;
#31 = CARTESIAN_POINT ( 'NONE',  ( 0.0000000000000000000, 0.0000000000000000000, 0.5000000000000000000 ) ) ;
#32 = EDGE_CURVE ( 'NONE', #186, #104, #100, .T. ) ;
#33 = LOCAL_TIME ( 13, 57, 30.00000000000000000, #178 ) ;
#34 = EDGE_CURVE ( 'NONE', #207, #86, #109, .T. ) ;
#35 = FACE_OUTER_BOUND ( 'NONE', #231, .T. ) ;
#36 = FACE_OUTER_BOUND ( 'NONE', #75, .T. ) ;
#37 = VERTEX_POINT ( 'NONE', #150 ) ;
#38 = AXIS2_PLACEMENT_3D ( 'NONE', #29, #140, #228 ) ;
#39 = DATE_TIME_ROLE ( 'creation_date' ) ;
#40 = LINE ( 'NONE', #222, #10 ) ;
#41 = ORIENTED_EDGE ( 'NONE', *, *, #25, .F. ) ;
#42 = PLANE ( 'NONE',  #157 ) ;
#43 = CALENDAR_DATE ( 2017, 10, 4 ) ;
#44 = PLANE ( 'NONE',  #223 ) ;
#45 = LOCAL_TIME ( 13, 57, 30.00000000000000000, #202 ) ;
#46 = ORIENTED_EDGE ( 'NONE', *, *, #32, .T. ) ;
#47 = EDGE_CURVE ( 'NONE', #76, #203, #146, .T. ) ;
#48 = ORIENTED_EDGE ( 'NONE', *, *, #147, .T. ) ;
#49 = CALENDAR_DATE ( 2017, 10, 4 ) ;
#50 = DIRECTION ( 'NONE',  ( -0.0000000000000000000, 1.000000000000000000, -0.0000000000000000000 ) ) ;
#51 = DIRECTION ( 'NONE',  ( 0.0000000000000000000, -1.000000000000000000, 0.0000000000000000000 ) ) ;
#52 = CLOSED_SHELL ( 'NONE', ( #1, #88, #166, #211, #184, #90 ) ) ;
#53 = LOCAL_TIME ( 13, 57, 30.00000000000000000, #69 ) ;
#54 = PERSON_AND_ORGANIZATION ( #23, #175 ) ;
#55 = SECURITY_CLASSIFICATION ( '', '', #159 ) ;
#56 = ORIENTED_EDGE ( 'NONE', *, *, #62, .T. ) ;
#57 = VECTOR ( 'NONE', #149, 1000.000000000000000 ) ;
#58 = COORDINATED_UNIVERSAL_TIME_OFFSET ( 5, 0, .BEHIND. ) ;
#59 = APPLICATION_CONTEXT ( 'configuration controlled 3d designs of mechanical parts and assemblies' ) ;
#60 = CARTESIAN_POINT ( 'NONE',  ( -17.50000000000000000, 17.50000000000000000, 0.5000000000000000000 ) ) ;
#61 = ORIENTED_EDGE ( 'NONE', *, *, #158, .T. ) ;
#62 = EDGE_CURVE ( 'NONE', #203, #207, #112, .T. ) ;
#63 = ORIENTED_EDGE ( 'NONE', *, *, #165, .F. ) ;
#64 = DESIGN_CONTEXT ( 'detailed design', #234, 'design' ) ;
#65 = APPLICATION_PROTOCOL_DEFINITION ( 'international standard', 'config_control_design', 1994, #59 ) ;
#66 = LOCAL_TIME ( 13, 57, 30.00000000000000000, #58 ) ;
#67 = DATE_AND_TIME ( #73, #85 ) ;
#68 = PLANE ( 'NONE',  #219 ) ;
#69 = COORDINATED_UNIVERSAL_TIME_OFFSET ( 5, 0, .BEHIND. ) ;
#70 = EDGE_LOOP ( 'NONE', ( #197, #41, #220, #174 ) ) ;
#71 = EDGE_CURVE ( 'NONE', #37, #203, #134, .T. ) ;
#72 = DIRECTION ( 'NONE',  ( 1.000000000000000000, 0.0000000000000000000, 0.0000000000000000000 ) ) ;
#73 = CALENDAR_DATE ( 2017, 10, 4 ) ;
#74 = CARTESIAN_POINT ( 'NONE',  ( -17.50000000000000000, -17.50000000000000000, -0.5000000000000000000 ) ) ;
#75 = EDGE_LOOP ( 'NONE', ( #237, #115, #111, #46 ) ) ;
#76 = VERTEX_POINT ( 'NONE', #139 ) ;
#77 =( NAMED_UNIT ( * ) SI_UNIT ( $, .STERADIAN. ) SOLID_ANGLE_UNIT ( ) );
#78 = FACE_OUTER_BOUND ( 'NONE', #190, .T. ) ;
#79 = EDGE_LOOP ( 'NONE', ( #91, #229, #89, #84 ) ) ;
#80 = CARTESIAN_POINT ( 'NONE',  ( 17.50000000000000000, 17.50000000000000000, -0.5000000000000000000 ) ) ;
#81 = ORIENTED_EDGE ( 'NONE', *, *, #158, .F. ) ;
#82 = CC_DESIGN_PERSON_AND_ORGANIZATION_ASSIGNMENT ( #214, #116, ( #55 ) ) ;
#83 = DIRECTION ( 'NONE',  ( -0.0000000000000000000, 0.0000000000000000000, 1.000000000000000000 ) ) ;
#84 = ORIENTED_EDGE ( 'NONE', *, *, #137, .T. ) ;
#85 = LOCAL_TIME ( 13, 57, 30.00000000000000000, #200 ) ;
#86 = VERTEX_POINT ( 'NONE', #191 ) ;
#87 = PRODUCT_RELATED_PRODUCT_CATEGORY ( 'detail', '', ( #188 ) ) ;
#88 = ADVANCED_FACE ( 'NONE', ( #78 ), #42, .F. ) ;
#89 = ORIENTED_EDGE ( 'NONE', *, *, #161, .F. ) ;
#90 = ADVANCED_FACE ( 'NONE', ( #12 ), #206, .F. ) ;
#91 = ORIENTED_EDGE ( 'NONE', *, *, #47, .T. ) ;
#92 = CC_DESIGN_PERSON_AND_ORGANIZATION_ASSIGNMENT ( #162, #7, ( #102 ) ) ;
#93 = ORIENTED_EDGE ( 'NONE', *, *, #34, .T. ) ;
#94 = CARTESIAN_POINT ( 'NONE',  ( 17.50000000000000000, -17.50000000000000000, 0.5000000000000000000 ) ) ;
#95 = VERTEX_POINT ( 'NONE', #97 ) ;
#96 = ORIENTED_EDGE ( 'NONE', *, *, #71, .T. ) ;
#97 = CARTESIAN_POINT ( 'NONE',  ( -17.50000000000000000, 17.50000000000000000, 0.5000000000000000000 ) ) ;
#98 = DIRECTION ( 'NONE',  ( 0.0000000000000000000, -0.0000000000000000000, 1.000000000000000000 ) ) ;
#99 = CARTESIAN_POINT ( 'NONE',  ( -17.50000000000000000, -17.50000000000000000, 0.5000000000000000000 ) ) ;
#100 = LINE ( 'NONE', #6, #122 ) ;
#101 = APPROVAL_STATUS ( 'not_yet_approved' ) ;
#102 = PRODUCT_DEFINITION_FORMATION_WITH_SPECIFIED_SOURCE ( 'ANY', '', #188, .NOT_KNOWN. ) ;
#103 =( LENGTH_UNIT ( ) NAMED_UNIT ( * ) SI_UNIT ( .MILLI., .METRE. ) );
#104 = VERTEX_POINT ( 'NONE', #13 ) ;
#105 = DIRECTION ( 'NONE',  ( -1.000000000000000000, -0.0000000000000000000, -0.0000000000000000000 ) ) ;
#106 = CARTESIAN_POINT ( 'NONE',  ( -17.50000000000000000, 17.50000000000000000, -0.5000000000000000000 ) ) ;
#107 = CARTESIAN_POINT ( 'NONE',  ( -17.50000000000000000, -17.50000000000000000, 0.5000000000000000000 ) ) ;
#108 = CC_DESIGN_PERSON_AND_ORGANIZATION_ASSIGNMENT ( #113, #152, ( #102 ) ) ;
#109 = LINE ( 'NONE', #106, #126 ) ;
#110 = DIRECTION ( 'NONE',  ( -0.0000000000000000000, 1.000000000000000000, -0.0000000000000000000 ) ) ;
#111 = ORIENTED_EDGE ( 'NONE', *, *, #165, .T. ) ;
#112 = LINE ( 'NONE', #8, #155 ) ;
#113 = PERSON_AND_ORGANIZATION ( #23, #175 ) ;
#114 = APPROVAL_DATE_TIME ( #11, #236 ) ;
#115 = ORIENTED_EDGE ( 'NONE', *, *, #14, .T. ) ;
#116 = PERSON_AND_ORGANIZATION_ROLE ( 'classification_officer' ) ;
#117 = PERSON_AND_ORGANIZATION ( #23, #175 ) ;
#118 = SHAPE_DEFINITION_REPRESENTATION ( #133, #210 ) ;
#119 = CC_DESIGN_SECURITY_CLASSIFICATION ( #55, ( #102 ) ) ;
#120 = CARTESIAN_POINT ( 'NONE',  ( -17.50000000000000000, 17.50000000000000000, 0.5000000000000000000 ) ) ;
#121 = LINE ( 'NONE', #173, #143 ) ;
#122 = VECTOR ( 'NONE', #27, 1000.000000000000000 ) ;
#123 = PLANE ( 'NONE',  #26 ) ;
#124 = DIRECTION ( 'NONE',  ( -0.0000000000000000000, -0.0000000000000000000, -1.000000000000000000 ) ) ;
#125 = ORIENTED_EDGE ( 'NONE', *, *, #137, .F. ) ;
#126 = VECTOR ( 'NONE', #51, 1000.000000000000000 ) ;
#127 = DIRECTION ( 'NONE',  ( 1.000000000000000000, 0.0000000000000000000, 0.0000000000000000000 ) ) ;
#128 = CC_DESIGN_APPROVAL ( #236, ( #55 ) ) ;
#129 = APPROVAL_PERSON_ORGANIZATION ( #193, #187, #148 ) ;
#130 = DIRECTION ( 'NONE',  ( -0.0000000000000000000, 0.0000000000000000000, -1.000000000000000000 ) ) ;
#131 = VECTOR ( 'NONE', #124, 1000.000000000000000 ) ;
#132 = VECTOR ( 'NONE', #2, 1000.000000000000000 ) ;
#133 = PRODUCT_DEFINITION_SHAPE ( 'NONE', 'NONE',  #196 ) ;
#134 = LINE ( 'NONE', #194, #138 ) ;
#135 = CC_DESIGN_APPROVAL ( #233, ( #196 ) ) ;
#136 = DATE_AND_TIME ( #142, #66 ) ;
#137 = EDGE_CURVE ( 'NONE', #104, #76, #5, .T. ) ;
#138 = VECTOR ( 'NONE', #227, 1000.000000000000000 ) ;
#139 = CARTESIAN_POINT ( 'NONE',  ( 17.50000000000000000, -17.50000000000000000, -0.5000000000000000000 ) ) ;
#140 = DIRECTION ( 'NONE',  ( 0.0000000000000000000, 0.0000000000000000000, 1.000000000000000000 ) ) ;
#141 = CARTESIAN_POINT ( 'NONE',  ( -17.50000000000000000, 17.50000000000000000, -0.5000000000000000000 ) ) ;
#142 = CALENDAR_DATE ( 2017, 10, 4 ) ;
#143 = VECTOR ( 'NONE', #50, 1000.000000000000000 ) ;
#144 = APPROVAL_STATUS ( 'not_yet_approved' ) ;
#145 = UNCERTAINTY_MEASURE_WITH_UNIT (LENGTH_MEASURE( 1.000000000000000100E-005 ), #103, 'distance_accuracy_value', 'NONE');
#146 = LINE ( 'NONE', #201, #221 ) ;
#147 = EDGE_CURVE ( 'NONE', #186, #86, #204, .T. ) ;
#148 = APPROVAL_ROLE ( '' ) ;
#149 = DIRECTION ( 'NONE',  ( -0.0000000000000000000, -0.0000000000000000000, -1.000000000000000000 ) ) ;
#150 = CARTESIAN_POINT ( 'NONE',  ( 17.50000000000000000, 17.50000000000000000, 0.5000000000000000000 ) ) ;
#151 = VECTOR ( 'NONE', #213, 1000.000000000000000 ) ;
#152 = PERSON_AND_ORGANIZATION_ROLE ( 'creator' ) ;
#153 = DIRECTION ( 'NONE',  ( 0.0000000000000000000, -1.000000000000000000, 0.0000000000000000000 ) ) ;
#154 = AXIS2_PLACEMENT_3D ( 'NONE', #120, #230, #130 ) ;
#155 = VECTOR ( 'NONE', #189, 1000.000000000000000 ) ;
#156 = EDGE_LOOP ( 'NONE', ( #167, #125, #209, #48 ) ) ;
#157 = AXIS2_PLACEMENT_3D ( 'NONE', #60, #208, #30 ) ;
#158 = EDGE_CURVE ( 'NONE', #95, #207, #3, .T. ) ;
#159 = SECURITY_CLASSIFICATION_LEVEL ( 'unclassified' ) ;
#160 = CARTESIAN_POINT ( 'NONE',  ( -17.50000000000000000, 17.50000000000000000, 0.5000000000000000000 ) ) ;
#161 = EDGE_CURVE ( 'NONE', #104, #37, #121, .T. ) ;
#162 = PERSON_AND_ORGANIZATION ( #23, #175 ) ;
#163 = ORIENTED_EDGE ( 'NONE', *, *, #147, .F. ) ;
#164 = LINE ( 'NONE', #160, #235 ) ;
#165 = EDGE_CURVE ( 'NONE', #95, #186, #40, .T. ) ;
#166 = ADVANCED_FACE ( 'NONE', ( #35 ), #24, .F. ) ;
#167 = ORIENTED_EDGE ( 'NONE', *, *, #25, .T. ) ;
#168 = FACE_OUTER_BOUND ( 'NONE', #79, .T. ) ;
#169 = DIRECTION ( 'NONE',  ( 0.0000000000000000000, 0.0000000000000000000, 1.000000000000000000 ) ) ;
#170 = CC_DESIGN_DATE_AND_TIME_ASSIGNMENT ( #183, #215, ( #55 ) ) ;
#171 = MECHANICAL_CONTEXT ( 'NONE', #59, 'mechanical' ) ;
#172 = AXIS2_PLACEMENT_3D ( 'NONE', #15, #83, #127 ) ;
#173 = CARTESIAN_POINT ( 'NONE',  ( 17.50000000000000000, 17.50000000000000000, 0.5000000000000000000 ) ) ;
#174 = ORIENTED_EDGE ( 'NONE', *, *, #62, .F. ) ;
#175 = ORGANIZATION ( 'UNSPECIFIED', 'UNSPECIFIED', '' ) ;
#176 = CARTESIAN_POINT ( 'NONE',  ( -17.50000000000000000, -17.50000000000000000, 0.5000000000000000000 ) ) ;
#177 =( NAMED_UNIT ( * ) PLANE_ANGLE_UNIT ( ) SI_UNIT ( $, .RADIAN. ) );
#178 = COORDINATED_UNIVERSAL_TIME_OFFSET ( 5, 0, .BEHIND. ) ;
#179 =( GEOMETRIC_REPRESENTATION_CONTEXT ( 3 ) GLOBAL_UNCERTAINTY_ASSIGNED_CONTEXT ( ( #145 ) ) GLOBAL_UNIT_ASSIGNED_CONTEXT ( ( #103, #177, #77 ) ) REPRESENTATION_CONTEXT ( 'NONE', 'WORKASPACE' ) );
#180 = CALENDAR_DATE ( 2017, 10, 4 ) ;
#181 = CC_DESIGN_DATE_AND_TIME_ASSIGNMENT ( #136, #39, ( #196 ) ) ;
#182 = PERSON_AND_ORGANIZATION_ROLE ( 'design_owner' ) ;
#183 = DATE_AND_TIME ( #49, #45 ) ;
#184 = ADVANCED_FACE ( 'NONE', ( #36 ), #44, .T. ) ;
#185 = DIRECTION ( 'NONE',  ( -0.0000000000000000000, 0.0000000000000000000, 1.000000000000000000 ) ) ;
#186 = VERTEX_POINT ( 'NONE', #107 ) ;
#187 = APPROVAL ( #198, 'UNSPECIFIED' ) ;
#188 = PRODUCT ( 'Web Model 46609_46610', 'Web Model 46609_46610', '', ( #171 ) ) ;
#189 = DIRECTION ( 'NONE',  ( -1.000000000000000000, -0.0000000000000000000, -0.0000000000000000000 ) ) ;
#190 = EDGE_LOOP ( 'NONE', ( #56, #81, #18, #96 ) ) ;
#191 = CARTESIAN_POINT ( 'NONE',  ( -17.50000000000000000, -17.50000000000000000, -0.5000000000000000000 ) ) ;
#192 = LINE ( 'NONE', #74, #151 ) ;
#193 = PERSON_AND_ORGANIZATION ( #23, #175 ) ;
#194 = CARTESIAN_POINT ( 'NONE',  ( 17.50000000000000000, 17.50000000000000000, 0.5000000000000000000 ) ) ;
#195 = APPLICATION_PROTOCOL_DEFINITION ( 'international standard', 'config_control_design', 1994, #234 ) ;
#196 = PRODUCT_DEFINITION ( 'UNKNOWN', '', #102, #64 ) ;
#197 = ORIENTED_EDGE ( 'NONE', *, *, #47, .F. ) ;
#198 = APPROVAL_STATUS ( 'not_yet_approved' ) ;
#199 = APPROVAL_DATE_TIME ( #216, #233 ) ;
#200 = COORDINATED_UNIVERSAL_TIME_OFFSET ( 5, 0, .BEHIND. ) ;
#201 = CARTESIAN_POINT ( 'NONE',  ( 17.50000000000000000, 17.50000000000000000, -0.5000000000000000000 ) ) ;
#202 = COORDINATED_UNIVERSAL_TIME_OFFSET ( 5, 0, .BEHIND. ) ;
#203 = VERTEX_POINT ( 'NONE', #80 ) ;
#204 = LINE ( 'NONE', #99, #57 ) ;
#205 = CC_DESIGN_PERSON_AND_ORGANIZATION_ASSIGNMENT ( #54, #22, ( #196 ) ) ;
#206 = PLANE ( 'NONE',  #172 ) ;
#207 = VERTEX_POINT ( 'NONE', #141 ) ;
#208 = DIRECTION ( 'NONE',  ( 0.0000000000000000000, -1.000000000000000000, 0.0000000000000000000 ) ) ;
#209 = ORIENTED_EDGE ( 'NONE', *, *, #32, .F. ) ;
#210 = ADVANCED_BREP_SHAPE_REPRESENTATION ( 'Web Model 46609_46610', ( #4, #38 ), #179 ) ;
#211 = ADVANCED_FACE ( 'NONE', ( #20 ), #68, .F. ) ;
#212 = CC_DESIGN_APPROVAL ( #187, ( #102 ) ) ;
#213 = DIRECTION ( 'NONE',  ( 1.000000000000000000, 0.0000000000000000000, 0.0000000000000000000 ) ) ;
#214 = PERSON_AND_ORGANIZATION ( #23, #175 ) ;
#215 = DATE_TIME_ROLE ( 'classification_date' ) ;
#216 = DATE_AND_TIME ( #43, #53 ) ;
#217 = CC_DESIGN_PERSON_AND_ORGANIZATION_ASSIGNMENT ( #21, #182, ( #188 ) ) ;
#218 = PERSON_AND_ORGANIZATION ( #23, #175 ) ;
#219 = AXIS2_PLACEMENT_3D ( 'NONE', #176, #226, #98 ) ;
#220 = ORIENTED_EDGE ( 'NONE', *, *, #34, .F. ) ;
#221 = VECTOR ( 'NONE', #110, 1000.000000000000000 ) ;
#222 = CARTESIAN_POINT ( 'NONE',  ( -17.50000000000000000, 17.50000000000000000, 0.5000000000000000000 ) ) ;
#223 = AXIS2_PLACEMENT_3D ( 'NONE', #31, #185, #72 ) ;
#224 = DIRECTION ( 'NONE',  ( -1.000000000000000000, 0.0000000000000000000, 0.0000000000000000000 ) ) ;
#225 = APPROVAL_ROLE ( '' ) ;
#226 = DIRECTION ( 'NONE',  ( 0.0000000000000000000, 1.000000000000000000, 0.0000000000000000000 ) ) ;
#227 = DIRECTION ( 'NONE',  ( -0.0000000000000000000, -0.0000000000000000000, -1.000000000000000000 ) ) ;
#228 = DIRECTION ( 'NONE',  ( 1.000000000000000000, 0.0000000000000000000, 0.0000000000000000000 ) ) ;
#229 = ORIENTED_EDGE ( 'NONE', *, *, #71, .F. ) ;
#230 = DIRECTION ( 'NONE',  ( 1.000000000000000000, 0.0000000000000000000, -0.0000000000000000000 ) ) ;
#231 = EDGE_LOOP ( 'NONE', ( #93, #163, #63, #61 ) ) ;
#232 = APPROVAL_ROLE ( '' ) ;
#233 = APPROVAL ( #144, 'UNSPECIFIED' ) ;
#234 = APPLICATION_CONTEXT ( 'configuration controlled 3d designs of mechanical parts and assemblies' ) ;
#235 = VECTOR ( 'NONE', #105, 1000.000000000000000 ) ;
#236 = APPROVAL ( #101, 'UNSPECIFIED' ) ;
#237 = ORIENTED_EDGE ( 'NONE', *, *, #161, .T. ) ;
ENDSEC;
END-ISO-10303-21;
