ISO-10303-21;
HEADER;
FILE_DESCRIPTION (( 'STEP AP203' ),
    '1' );
FILE_NAME ('20118-E0W.STEP',
    '2015-07-10T15:27:06',
    ( 'Admin' ),
    ( '' ),
    'SwSTEP 2.0',
    'SolidWorks 2014',
    '' );
FILE_SCHEMA (( 'CONFIG_CONTROL_DESIGN' ));
ENDSEC;

DATA;
#1 = CC_DESIGN_PERSON_AND_ORGANIZATION_ASSIGNMENT ( #215, #119, ( #149 ) ) ;
#2 = ORIENTED_EDGE ( 'NONE', *, *, #207, .T. ) ;
#3 = CIRCLE ( 'NONE', #214, 12.55857864376268800 ) ;
#4 = LOCAL_TIME ( 11, 27, 6.000000000000000000, #41 ) ;
#5 = SPHERICAL_SURFACE ( 'NONE', #23, 181.8999999999999500 ) ;
#6 = COORDINATED_UNIVERSAL_TIME_OFFSET ( 5, 0, .BEHIND. ) ;
#7 = CARTESIAN_POINT ( 'NONE',  ( 0.0000000000000000000, 12.55857864376275400, 1.565953011710766100 ) ) ;
#8 = DIRECTION ( 'NONE',  ( 0.0000000000000000000, -0.7071067811865455700, 0.7071067811865493500 ) ) ;
#9 = EDGE_LOOP ( 'NONE', ( #15, #25, #170 ) ) ;
#10 = DIRECTION ( 'NONE',  ( 0.0000000000000000000, 1.000000000000000000, 3.073328992872295900E-016 ) ) ;
#11 = CARTESIAN_POINT ( 'NONE',  ( 0.0000000000000000000, 8.547752349680204900E-016, -2.000000000000004000 ) ) ;
#12 = CARTESIAN_POINT ( 'NONE',  ( 0.0000000000000000000, 8.547752349680193100E-016, -2.000000000000000000 ) ) ;
#13 = PRODUCT ( '20118-E0W', '20118-E0W', '', ( #178 ) ) ;
#14 = CC_DESIGN_APPROVAL ( #196, ( #149 ) ) ;
#15 = ORIENTED_EDGE ( 'NONE', *, *, #173, .F. ) ;
#16 = AXIS2_PLACEMENT_3D ( 'NONE', #185, #60, #222 ) ;
#17 = EDGE_LOOP ( 'NONE', ( #21, #300, #212 ) ) ;
#18 = AXIS2_PLACEMENT_3D ( 'NONE', #62, #38, #297 ) ;
#19 = EDGE_CURVE ( 'NONE', #279, #94, #216, .T. ) ;
#20 = DIRECTION ( 'NONE',  ( -1.000000000000000000, 0.0000000000000000000, 0.0000000000000000000 ) ) ;
#21 = ORIENTED_EDGE ( 'NONE', *, *, #132, .F. ) ;
#22 = DIRECTION ( 'NONE',  ( -1.224646799147353200E-016, 1.000000000000000000, 0.0000000000000000000 ) ) ;
#23 = AXIS2_PLACEMENT_3D ( 'NONE', #291, #90, #249 ) ;
#24 = AXIS2_PLACEMENT_3D ( 'NONE', #274, #57, #190 ) ;
#25 = ORIENTED_EDGE ( 'NONE', *, *, #132, .T. ) ;
#26 = ORIENTED_EDGE ( 'NONE', *, *, #209, .T. ) ;
#27 = CARTESIAN_POINT ( 'NONE',  ( 0.0000000000000000000, -1.936505710716660600E-016, 1.424531655473524100 ) ) ;
#28 = ORIENTED_EDGE ( 'NONE', *, *, #209, .F. ) ;
#29 = EDGE_CURVE ( 'NONE', #155, #181, #174, .T. ) ;
#30 = CONICAL_SURFACE ( 'NONE', #24, 12.69999999999999900, 0.7853981633976645500 ) ;
#31 = APPROVAL_PERSON_ORGANIZATION ( #272, #271, #78 ) ;
#32 = FACE_OUTER_BOUND ( 'NONE', #150, .T. ) ;
#33 = EDGE_LOOP ( 'NONE', ( #28, #52, #35, #266 ) ) ;
#34 = FACE_OUTER_BOUND ( 'NONE', #9, .T. ) ;
#35 = ORIENTED_EDGE ( 'NONE', *, *, #39, .T. ) ;
#36 = FACE_OUTER_BOUND ( 'NONE', #33, .T. ) ;
#37 = CARTESIAN_POINT ( 'NONE',  ( 0.0000000000000000000, 8.547752349680204900E-016, -2.000000000000004000 ) ) ;
#38 = DIRECTION ( 'NONE',  ( -0.0000000000000000000, 3.061515884555943100E-016, -1.000000000000000000 ) ) ;
#39 = EDGE_CURVE ( 'NONE', #94, #162, #247, .T. ) ;
#40 = CYLINDRICAL_SURFACE ( 'NONE', #95, 12.69999999999999900 ) ;
#41 = COORDINATED_UNIVERSAL_TIME_OFFSET ( 5, 0, .BEHIND. ) ;
#42 = CARTESIAN_POINT ( 'NONE',  ( 0.0000000000000000000, 12.69999999999999900, -1.999999999999996200 ) ) ;
#43 = DIRECTION ( 'NONE',  ( -0.0000000000000000000, 3.061515884555943100E-016, -1.000000000000000000 ) ) ;
#44 = VECTOR ( 'NONE', #186, 1000.000000000000000 ) ;
#45 = CC_DESIGN_PERSON_AND_ORGANIZATION_ASSIGNMENT ( #224, #163, ( #245 ) ) ;
#46 = VECTOR ( 'NONE', #177, 1000.000000000000100 ) ;
#47 = DIRECTION ( 'NONE',  ( 0.0000000000000000000, 1.000000000000000000, 3.073328992872296400E-016 ) ) ;
#48 = PERSON_AND_ORGANIZATION_ROLE ( 'design_owner' ) ;
#49 = CIRCLE ( 'NONE', #54, 181.8999999999999500 ) ;
#50 = LINE ( 'NONE', #161, #263 ) ;
#51 = CC_DESIGN_PERSON_AND_ORGANIZATION_ASSIGNMENT ( #92, #96, ( #68 ) ) ;
#52 = ORIENTED_EDGE ( 'NONE', *, *, #259, .T. ) ;
#53 = ORGANIZATION ( 'UNSPECIFIED', 'UNSPECIFIED', '' ) ;
#54 = AXIS2_PLACEMENT_3D ( 'NONE', #262, #276, #22 ) ;
#55 = ADVANCED_BREP_SHAPE_REPRESENTATION ( '20118-E0W', ( #152, #166 ), #218 ) ;
#56 = COORDINATED_UNIVERSAL_TIME_OFFSET ( 5, 0, .BEHIND. ) ;
#57 = DIRECTION ( 'NONE',  ( -0.0000000000000000000, 3.061515884555943100E-016, -1.000000000000000000 ) ) ;
#58 = DIRECTION ( 'NONE',  ( 0.0000000000000000000, 0.0000000000000000000, 1.000000000000000000 ) ) ;
#59 = ADVANCED_FACE ( 'NONE', ( #120 ), #67, .T. ) ;
#60 = DIRECTION ( 'NONE',  ( -0.0000000000000000000, 3.061515884555943100E-016, -1.000000000000000000 ) ) ;
#61 = CALENDAR_DATE ( 2015, 10, 7 ) ;
#62 = CARTESIAN_POINT ( 'NONE',  ( 0.0000000000000000000, 8.114788621144234600E-016, -1.858578643762693400 ) ) ;
#63 = CARTESIAN_POINT ( 'NONE',  ( 0.0000000000000000000, 8.547752349680204900E-016, -2.000000000000004000 ) ) ;
#64 = APPLICATION_PROTOCOL_DEFINITION ( 'international standard', 'config_control_design', 1994, #248 ) ;
#65 = FACE_OUTER_BOUND ( 'NONE', #199, .T. ) ;
#66 = CARTESIAN_POINT ( 'NONE',  ( 0.0000000000000000000, 8.547752349680199000E-016, -2.000000000000001800 ) ) ;
#67 = CONICAL_SURFACE ( 'NONE', #144, 12.69999999999999900, 0.7853981633976645500 ) ;
#68 = PRODUCT_DEFINITION ( 'UNKNOWN', '', #149, #281 ) ;
#69 = ORIENTED_EDGE ( 'NONE', *, *, #207, .F. ) ;
#70 = COORDINATED_UNIVERSAL_TIME_OFFSET ( 5, 0, .BEHIND. ) ;
#71 = APPROVAL_STATUS ( 'not_yet_approved' ) ;
#72 = LINE ( 'NONE', #258, #88 ) ;
#73 = APPLICATION_CONTEXT ( 'configuration controlled 3d designs of mechanical parts and assemblies' ) ;
#74 = DIRECTION ( 'NONE',  ( -0.0000000000000000000, 3.061515884555943100E-016, -1.000000000000000000 ) ) ;
#75 = AXIS2_PLACEMENT_3D ( 'NONE', #27, #192, #184 ) ;
#76 = VERTEX_POINT ( 'NONE', #106 ) ;
#77 = ORIENTED_EDGE ( 'NONE', *, *, #39, .F. ) ;
#78 = APPROVAL_ROLE ( '' ) ;
#79 = EDGE_CURVE ( 'NONE', #94, #111, #221, .T. ) ;
#80 = ORIENTED_EDGE ( 'NONE', *, *, #145, .T. ) ;
#81 = ADVANCED_FACE ( 'NONE', ( #85 ), #197, .T. ) ;
#82 = DATE_AND_TIME ( #230, #4 ) ;
#83 = DIRECTION ( 'NONE',  ( 0.0000000000000000000, 1.000000000000000000, 3.073328992872296400E-016 ) ) ;
#84 = ORIENTED_EDGE ( 'NONE', *, *, #296, .T. ) ;
#85 = FACE_OUTER_BOUND ( 'NONE', #244, .T. ) ;
#86 = CC_DESIGN_SECURITY_CLASSIFICATION ( #245, ( #149 ) ) ;
#87 = ORIENTED_EDGE ( 'NONE', *, *, #110, .F. ) ;
#88 = VECTOR ( 'NONE', #131, 999.9999999999998900 ) ;
#89 = APPROVAL_DATE_TIME ( #82, #271 ) ;
#90 = DIRECTION ( 'NONE',  ( 1.000000000000000000, 0.0000000000000000000, -0.0000000000000000000 ) ) ;
#91 = VERTEX_POINT ( 'NONE', #219 ) ;
#92 = PERSON_AND_ORGANIZATION ( #129, #53 ) ;
#93 = LOCAL_TIME ( 11, 27, 6.000000000000000000, #6 ) ;
#94 = VERTEX_POINT ( 'NONE', #203 ) ;
#95 = AXIS2_PLACEMENT_3D ( 'NONE', #200, #171, #83 ) ;
#96 = PERSON_AND_ORGANIZATION_ROLE ( 'creator' ) ;
#97 = CARTESIAN_POINT ( 'NONE',  ( 0.0000000000000000000, 8.547752349680204900E-016, -2.000000000000004000 ) ) ;
#98 = CONICAL_SURFACE ( 'NONE', #141, 12.55857864376269200, 0.7853981633974452800 ) ;
#99 = LOCAL_TIME ( 11, 27, 6.000000000000000000, #137 ) ;
#100 = DATE_AND_TIME ( #158, #99 ) ;
#101 = DATE_TIME_ROLE ( 'creation_date' ) ;
#102 = DIRECTION ( 'NONE',  ( 0.0000000000000000000, -1.000000000000000000, -3.107937555406664100E-016 ) ) ;
#103 = ORIENTED_EDGE ( 'NONE', *, *, #29, .F. ) ;
#104 = PERSON_AND_ORGANIZATION ( #129, #53 ) ;
#105 = VECTOR ( 'NONE', #246, 1000.000000000000000 ) ;
#106 = CARTESIAN_POINT ( 'NONE',  ( 1.555301434917138800E-015, -12.70000000000000300, -1.858578643762697200 ) ) ;
#107 = ORIENTED_EDGE ( 'NONE', *, *, #259, .F. ) ;
#108 = DIRECTION ( 'NONE',  ( 0.0000000000000000000, 1.000000000000000000, 3.107937555406665100E-016 ) ) ;
#109 = DATE_AND_TIME ( #61, #217 ) ;
#110 = EDGE_CURVE ( 'NONE', #181, #162, #201, .T. ) ;
#111 = VERTEX_POINT ( 'NONE', #117 ) ;
#112 = APPROVAL_DATE_TIME ( #109, #196 ) ;
#113 = ADVANCED_FACE ( 'NONE', ( #65 ), #40, .T. ) ;
#114 = CARTESIAN_POINT ( 'NONE',  ( 0.0000000000000000000, -12.55857864376269200, -2.000000000000008000 ) ) ;
#115 = PERSON_AND_ORGANIZATION ( #129, #53 ) ;
#116 = CARTESIAN_POINT ( 'NONE',  ( 0.0000000000000000000, -2.264505284465271200E-014, 2.000000000000001800 ) ) ;
#117 = CARTESIAN_POINT ( 'NONE',  ( 1.555301434917138400E-015, -12.69999999999999900, 1.424531655473520100 ) ) ;
#118 = EDGE_CURVE ( 'NONE', #162, #76, #121, .T. ) ;
#119 = PERSON_AND_ORGANIZATION_ROLE ( 'design_supplier' ) ;
#120 = FACE_OUTER_BOUND ( 'NONE', #226, .T. ) ;
#121 = CIRCLE ( 'NONE', #18, 12.70000000000000100 ) ;
#122 = CARTESIAN_POINT ( 'NONE',  ( 0.0000000000000000000, -1.936505710716660600E-016, 1.424531655473524100 ) ) ;
#123 =( NAMED_UNIT ( * ) SI_UNIT ( $, .STERADIAN. ) SOLID_ANGLE_UNIT ( ) );
#124 = SECURITY_CLASSIFICATION_LEVEL ( 'unclassified' ) ;
#125 = APPLICATION_PROTOCOL_DEFINITION ( 'international standard', 'config_control_design', 1994, #73 ) ;
#126 = VECTOR ( 'NONE', #227, 1000.000000000000000 ) ;
#127 = DATE_TIME_ROLE ( 'classification_date' ) ;
#128 = LINE ( 'NONE', #165, #44 ) ;
#129 = PERSON ( 'UNSPECIFIED', 'UNSPECIFIED', 'UNSPECIFIED', ('UNSPECIFIED'), ('UNSPECIFIED'), ('UNSPECIFIED') ) ;
#130 = APPROVAL_STATUS ( 'not_yet_approved' ) ;
#131 = DIRECTION ( 'NONE',  ( 8.659560562356806400E-017, -0.7071067811867003400, -0.7071067811863948100 ) ) ;
#132 = EDGE_CURVE ( 'NONE', #255, #91, #49, .T. ) ;
#133 = PERSON_AND_ORGANIZATION_ROLE ( 'creator' ) ;
#134 = DIRECTION ( 'NONE',  ( 0.0000000000000000000, -3.061515884555943100E-016, 1.000000000000000000 ) ) ;
#135 = PERSON_AND_ORGANIZATION ( #129, #53 ) ;
#136 = DIRECTION ( 'NONE',  ( -0.0000000000000000000, 3.061515884555943100E-016, -1.000000000000000000 ) ) ;
#137 = COORDINATED_UNIVERSAL_TIME_OFFSET ( 5, 0, .BEHIND. ) ;
#138 = APPROVAL_ROLE ( '' ) ;
#139 = ORIENTED_EDGE ( 'NONE', *, *, #118, .F. ) ;
#140 = DIRECTION ( 'NONE',  ( 0.0000000000000000000, 1.000000000000000000, 3.051740034703564600E-016 ) ) ;
#141 = AXIS2_PLACEMENT_3D ( 'NONE', #37, #134, #264 ) ;
#142 = CC_DESIGN_DATE_AND_TIME_ASSIGNMENT ( #157, #127, ( #245 ) ) ;
#143 = PERSON_AND_ORGANIZATION ( #129, #53 ) ;
#144 = AXIS2_PLACEMENT_3D ( 'NONE', #122, #220, #47 ) ;
#145 = EDGE_CURVE ( 'NONE', #279, #91, #3, .T. ) ;
#146 = CIRCLE ( 'NONE', #208, 12.55857864376269200 ) ;
#147 = DIRECTION ( 'NONE',  ( -0.0000000000000000000, 3.061515884555943100E-016, -1.000000000000000000 ) ) ;
#148 = CC_DESIGN_DATE_AND_TIME_ASSIGNMENT ( #100, #101, ( #68 ) ) ;
#149 = PRODUCT_DEFINITION_FORMATION_WITH_SPECIFIED_SOURCE ( 'ANY', '', #13, .NOT_KNOWN. ) ;
#150 = EDGE_LOOP ( 'NONE', ( #80, #84, #292, #206 ) ) ;
#151 = CARTESIAN_POINT ( 'NONE',  ( 1.537982313792428900E-015, 12.55857864376269200, -2.000000000000000000 ) ) ;
#152 = MANIFOLD_SOLID_BREP ( '20118-001-1-solid1', #172 ) ;
#153 = AXIS2_PLACEMENT_3D ( 'NONE', #63, #136, #233 ) ;
#154 = CALENDAR_DATE ( 2015, 10, 7 ) ;
#155 = VERTEX_POINT ( 'NONE', #114 ) ;
#156 = DIRECTION ( 'NONE',  ( -0.0000000000000000000, 3.061515884555943100E-016, -1.000000000000000000 ) ) ;
#157 = DATE_AND_TIME ( #277, #93 ) ;
#158 = CALENDAR_DATE ( 2015, 10, 7 ) ;
#159 = DIRECTION ( 'NONE',  ( 1.000000000000000000, 0.0000000000000000000, -0.0000000000000000000 ) ) ;
#160 = ADVANCED_FACE ( 'NONE', ( #34 ), #167, .T. ) ;
#161 = CARTESIAN_POINT ( 'NONE',  ( 0.0000000000000000000, -12.55857864376269200, -2.000000000000008000 ) ) ;
#162 = VERTEX_POINT ( 'NONE', #229 ) ;
#163 = PERSON_AND_ORGANIZATION_ROLE ( 'classification_officer' ) ;
#164 = AXIS2_PLACEMENT_3D ( 'NONE', #66, #74, #183 ) ;
#165 = CARTESIAN_POINT ( 'NONE',  ( 1.555301434917138400E-015, -12.69999999999999900, -2.000000000000004000 ) ) ;
#166 = AXIS2_PLACEMENT_3D ( 'NONE', #282, #278, #269 ) ;
#167 = SPHERICAL_SURFACE ( 'NONE', #180, 181.8999999999999500 ) ;
#168 = DIRECTION ( 'NONE',  ( 0.0000000000000000000, -3.061515884555943100E-016, 1.000000000000000000 ) ) ;
#169 = CARTESIAN_POINT ( 'NONE',  ( 0.0000000000000000000, 8.114788621144234600E-016, -1.858578643762693400 ) ) ;
#170 = ORIENTED_EDGE ( 'NONE', *, *, #145, .F. ) ;
#171 = DIRECTION ( 'NONE',  ( -0.0000000000000000000, 3.061515884555943100E-016, -1.000000000000000000 ) ) ;
#172 = CLOSED_SHELL ( 'NONE', ( #193, #113, #242, #160, #81, #241, #59, #254, #205 ) ) ;
#173 = EDGE_CURVE ( 'NONE', #255, #279, #270, .T. ) ;
#174 = CIRCLE ( 'NONE', #153, 12.55857864376269200 ) ;
#175 = ORIENTED_EDGE ( 'NONE', *, *, #19, .T. ) ;
#176 = DATE_AND_TIME ( #154, #239 ) ;
#177 = DIRECTION ( 'NONE',  ( 8.659560562354905700E-017, 0.7071067811865451300, 0.7071067811865499000 ) ) ;
#178 = MECHANICAL_CONTEXT ( 'NONE', #248, 'mechanical' ) ;
#179 = CC_DESIGN_PERSON_AND_ORGANIZATION_ASSIGNMENT ( #143, #48, ( #13 ) ) ;
#180 = AXIS2_PLACEMENT_3D ( 'NONE', #293, #159, #140 ) ;
#181 = VERTEX_POINT ( 'NONE', #231 ) ;
#182 = APPROVAL_ROLE ( '' ) ;
#183 = DIRECTION ( 'NONE',  ( 0.0000000000000000000, 1.000000000000000000, 3.061515884555943100E-016 ) ) ;
#184 = DIRECTION ( 'NONE',  ( 0.0000000000000000000, 1.000000000000000000, 3.073328992872295900E-016 ) ) ;
#185 = CARTESIAN_POINT ( 'NONE',  ( 0.0000000000000000000, -1.936505710716660600E-016, 1.424531655473524100 ) ) ;
#186 = DIRECTION ( 'NONE',  ( -0.0000000000000000000, 3.061515884555943100E-016, -1.000000000000000000 ) ) ;
#187 = FACE_OUTER_BOUND ( 'NONE', #17, .T. ) ;
#188 = FACE_OUTER_BOUND ( 'NONE', #210, .T. ) ;
#189 = ORIENTED_EDGE ( 'NONE', *, *, #296, .F. ) ;
#190 = DIRECTION ( 'NONE',  ( 0.0000000000000000000, 1.000000000000000000, 3.073328992872296400E-016 ) ) ;
#191 = APPROVAL ( #211, 'UNSPECIFIED' ) ;
#192 = DIRECTION ( 'NONE',  ( -0.0000000000000000000, 3.061515884555943100E-016, -1.000000000000000000 ) ) ;
#193 = ADVANCED_FACE ( 'NONE', ( #188 ), #195, .T. ) ;
#194 = CC_DESIGN_APPROVAL ( #191, ( #245 ) ) ;
#195 = CONICAL_SURFACE ( 'NONE', #256, 12.55857864376269200, 0.7853981633974452800 ) ;
#196 = APPROVAL ( #130, 'UNSPECIFIED' ) ;
#197 = PLANE ( 'NONE',  #164 ) ;
#198 = AXIS2_PLACEMENT_3D ( 'NONE', #169, #147, #10 ) ;
#199 = EDGE_LOOP ( 'NONE', ( #250, #26, #139, #77 ) ) ;
#200 = CARTESIAN_POINT ( 'NONE',  ( 0.0000000000000000000, 8.547752349680193100E-016, -2.000000000000000000 ) ) ;
#201 = LINE ( 'NONE', #151, #46 ) ;
#202 = ORIENTED_EDGE ( 'NONE', *, *, #252, .F. ) ;
#203 = CARTESIAN_POINT ( 'NONE',  ( 0.0000000000000000000, 12.69999999999999900, 1.424531655473528100 ) ) ;
#204 = APPROVAL_PERSON_ORGANIZATION ( #135, #191, #138 ) ;
#205 = ADVANCED_FACE ( 'NONE', ( #225 ), #98, .T. ) ;
#206 = ORIENTED_EDGE ( 'NONE', *, *, #19, .F. ) ;
#207 = EDGE_CURVE ( 'NONE', #181, #155, #146, .T. ) ;
#208 = AXIS2_PLACEMENT_3D ( 'NONE', #97, #43, #237 ) ;
#209 = EDGE_CURVE ( 'NONE', #111, #76, #128, .T. ) ;
#210 = EDGE_LOOP ( 'NONE', ( #69, #273, #232, #202 ) ) ;
#211 = APPROVAL_STATUS ( 'not_yet_approved' ) ;
#212 = ORIENTED_EDGE ( 'NONE', *, *, #257, .F. ) ;
#213 = CARTESIAN_POINT ( 'NONE',  ( 0.0000000000000000000, -2.369469439252452900E-016, 1.565953011710776100 ) ) ;
#214 = AXIS2_PLACEMENT_3D ( 'NONE', #295, #298, #108 ) ;
#215 = PERSON_AND_ORGANIZATION ( #129, #53 ) ;
#216 = LINE ( 'NONE', #235, #126 ) ;
#217 = LOCAL_TIME ( 11, 27, 6.000000000000000000, #70 ) ;
#218 =( GEOMETRIC_REPRESENTATION_CONTEXT ( 3 ) GLOBAL_UNCERTAINTY_ASSIGNED_CONTEXT ( ( #294 ) ) GLOBAL_UNIT_ASSIGNED_CONTEXT ( ( #280, #265, #123 ) ) REPRESENTATION_CONTEXT ( 'NONE', 'WORKASPACE' ) );
#219 = CARTESIAN_POINT ( 'NONE',  ( 1.537982313792436400E-015, -12.55857864376278600, 1.565953011710762300 ) ) ;
#220 = DIRECTION ( 'NONE',  ( -0.0000000000000000000, 3.061515884555943100E-016, -1.000000000000000000 ) ) ;
#221 = CIRCLE ( 'NONE', #75, 12.70000000000000100 ) ;
#222 = DIRECTION ( 'NONE',  ( 0.0000000000000000000, 1.000000000000000000, 3.073328992872295900E-016 ) ) ;
#223 = CIRCLE ( 'NONE', #198, 12.70000000000000100 ) ;
#224 = PERSON_AND_ORGANIZATION ( #129, #53 ) ;
#225 = FACE_OUTER_BOUND ( 'NONE', #228, .T. ) ;
#226 = EDGE_LOOP ( 'NONE', ( #189, #240, #175, #107 ) ) ;
#227 = DIRECTION ( 'NONE',  ( 0.0000000000000000000, 0.7071067811867006700, -0.7071067811863943600 ) ) ;
#228 = EDGE_LOOP ( 'NONE', ( #87, #103, #289, #275 ) ) ;
#229 = CARTESIAN_POINT ( 'NONE',  ( 0.0000000000000000000, 12.70000000000000100, -1.858578643762689400 ) ) ;
#230 = CALENDAR_DATE ( 2015, 10, 7 ) ;
#231 = CARTESIAN_POINT ( 'NONE',  ( 1.546641874354783800E-015, 12.55857864376269200, -2.000000000000000000 ) ) ;
#232 = ORIENTED_EDGE ( 'NONE', *, *, #118, .T. ) ;
#233 = DIRECTION ( 'NONE',  ( 0.0000000000000000000, 1.000000000000000000, 3.107937555406664100E-016 ) ) ;
#234 = APPROVAL_DATE_TIME ( #176, #191 ) ;
#235 = CARTESIAN_POINT ( 'NONE',  ( 0.0000000000000000000, 12.69999999999999900, 1.424531655473528100 ) ) ;
#236 = AXIS2_PLACEMENT_3D ( 'NONE', #12, #261, #284 ) ;
#237 = DIRECTION ( 'NONE',  ( 0.0000000000000000000, 1.000000000000000000, 3.107937555406664100E-016 ) ) ;
#238 = AXIS2_PLACEMENT_3D ( 'NONE', #299, #20, #58 ) ;
#239 = LOCAL_TIME ( 11, 27, 6.000000000000000000, #56 ) ;
#240 = ORIENTED_EDGE ( 'NONE', *, *, #257, .T. ) ;
#241 = ADVANCED_FACE ( 'NONE', ( #187 ), #5, .T. ) ;
#242 = ADVANCED_FACE ( 'NONE', ( #32 ), #30, .T. ) ;
#243 = CIRCLE ( 'NONE', #16, 12.70000000000000100 ) ;
#244 = EDGE_LOOP ( 'NONE', ( #285, #2 ) ) ;
#245 = SECURITY_CLASSIFICATION ( '', '', #124 ) ;
#246 = DIRECTION ( 'NONE',  ( -0.0000000000000000000, 3.061515884555943100E-016, -1.000000000000000000 ) ) ;
#247 = LINE ( 'NONE', #42, #105 ) ;
#248 = APPLICATION_CONTEXT ( 'configuration controlled 3d designs of mechanical parts and assemblies' ) ;
#249 = DIRECTION ( 'NONE',  ( 0.0000000000000000000, 1.000000000000000000, 3.051740034703564600E-016 ) ) ;
#250 = ORIENTED_EDGE ( 'NONE', *, *, #79, .T. ) ;
#251 = PRODUCT_DEFINITION_SHAPE ( 'NONE', 'NONE',  #68 ) ;
#252 = EDGE_CURVE ( 'NONE', #155, #76, #50, .T. ) ;
#253 = AXIS2_PLACEMENT_3D ( 'NONE', #213, #156, #267 ) ;
#254 = ADVANCED_FACE ( 'NONE', ( #36 ), #301, .T. ) ;
#255 = VERTEX_POINT ( 'NONE', #116 ) ;
#256 = AXIS2_PLACEMENT_3D ( 'NONE', #11, #168, #102 ) ;
#257 = EDGE_CURVE ( 'NONE', #91, #279, #288, .T. ) ;
#258 = CARTESIAN_POINT ( 'NONE',  ( 1.555301434917138400E-015, -12.69999999999999900, 1.424531655473520100 ) ) ;
#259 = EDGE_CURVE ( 'NONE', #111, #94, #243, .T. ) ;
#260 = SHAPE_DEFINITION_REPRESENTATION ( #251, #55 ) ;
#261 = DIRECTION ( 'NONE',  ( -0.0000000000000000000, 3.061515884555943100E-016, -1.000000000000000000 ) ) ;
#262 = CARTESIAN_POINT ( 'NONE',  ( 0.0000000000000000000, 2.190575845717470200E-014, -179.8999999999999500 ) ) ;
#263 = VECTOR ( 'NONE', #8, 1000.000000000000100 ) ;
#264 = DIRECTION ( 'NONE',  ( 0.0000000000000000000, -1.000000000000000000, -3.107937555406664100E-016 ) ) ;
#265 =( NAMED_UNIT ( * ) PLANE_ANGLE_UNIT ( ) SI_UNIT ( $, .RADIAN. ) );
#266 = ORIENTED_EDGE ( 'NONE', *, *, #287, .F. ) ;
#267 = DIRECTION ( 'NONE',  ( 0.0000000000000000000, 1.000000000000000000, 3.107937555406665100E-016 ) ) ;
#268 = CC_DESIGN_PERSON_AND_ORGANIZATION_ASSIGNMENT ( #115, #133, ( #149 ) ) ;
#269 = DIRECTION ( 'NONE',  ( 1.000000000000000000, 0.0000000000000000000, 0.0000000000000000000 ) ) ;
#270 = CIRCLE ( 'NONE', #238, 181.8999999999999500 ) ;
#271 = APPROVAL ( #71, 'UNSPECIFIED' ) ;
#272 = PERSON_AND_ORGANIZATION ( #129, #53 ) ;
#273 = ORIENTED_EDGE ( 'NONE', *, *, #110, .T. ) ;
#274 = CARTESIAN_POINT ( 'NONE',  ( 0.0000000000000000000, -1.936505710716660600E-016, 1.424531655473524100 ) ) ;
#275 = ORIENTED_EDGE ( 'NONE', *, *, #287, .T. ) ;
#276 = DIRECTION ( 'NONE',  ( 1.000000000000000000, 1.224646799147353200E-016, 3.749275628560213600E-032 ) ) ;
#277 = CALENDAR_DATE ( 2015, 10, 7 ) ;
#278 = DIRECTION ( 'NONE',  ( 0.0000000000000000000, 0.0000000000000000000, 1.000000000000000000 ) ) ;
#279 = VERTEX_POINT ( 'NONE', #7 ) ;
#280 =( LENGTH_UNIT ( ) NAMED_UNIT ( * ) SI_UNIT ( .MILLI., .METRE. ) );
#281 = DESIGN_CONTEXT ( 'detailed design', #73, 'design' ) ;
#282 = CARTESIAN_POINT ( 'NONE',  ( 0.0000000000000000000, 0.0000000000000000000, 0.0000000000000000000 ) ) ;
#283 = CC_DESIGN_APPROVAL ( #271, ( #68 ) ) ;
#284 = DIRECTION ( 'NONE',  ( 0.0000000000000000000, 1.000000000000000000, 3.073328992872296400E-016 ) ) ;
#285 = ORIENTED_EDGE ( 'NONE', *, *, #29, .T. ) ;
#286 = PRODUCT_RELATED_PRODUCT_CATEGORY ( 'detail', '', ( #13 ) ) ;
#287 = EDGE_CURVE ( 'NONE', #76, #162, #223, .T. ) ;
#288 = CIRCLE ( 'NONE', #253, 12.55857864376268800 ) ;
#289 = ORIENTED_EDGE ( 'NONE', *, *, #252, .T. ) ;
#290 = APPROVAL_PERSON_ORGANIZATION ( #104, #196, #182 ) ;
#291 = CARTESIAN_POINT ( 'NONE',  ( 0.0000000000000000000, 2.190575845717470200E-014, -179.8999999999999500 ) ) ;
#292 = ORIENTED_EDGE ( 'NONE', *, *, #79, .F. ) ;
#293 = CARTESIAN_POINT ( 'NONE',  ( 0.0000000000000000000, 2.190575845717470200E-014, -179.8999999999999500 ) ) ;
#294 = UNCERTAINTY_MEASURE_WITH_UNIT (LENGTH_MEASURE( 1.000000000000000100E-005 ), #280, 'distance_accuracy_value', 'NONE');
#295 = CARTESIAN_POINT ( 'NONE',  ( 0.0000000000000000000, -2.369469439252452900E-016, 1.565953011710776100 ) ) ;
#296 = EDGE_CURVE ( 'NONE', #91, #111, #72, .T. ) ;
#297 = DIRECTION ( 'NONE',  ( 0.0000000000000000000, 1.000000000000000000, 3.073328992872295900E-016 ) ) ;
#298 = DIRECTION ( 'NONE',  ( -0.0000000000000000000, 3.061515884555943100E-016, -1.000000000000000000 ) ) ;
#299 = CARTESIAN_POINT ( 'NONE',  ( 0.0000000000000000000, 2.190575845717470200E-014, -179.8999999999999500 ) ) ;
#300 = ORIENTED_EDGE ( 'NONE', *, *, #173, .T. ) ;
#301 = CYLINDRICAL_SURFACE ( 'NONE', #236, 12.69999999999999900 ) ;
ENDSEC;
END-ISO-10303-21;
