ISO-10303-21;
HEADER;
FILE_DESCRIPTION (( 'STEP AP203' ),
    '1' );
FILE_NAME ('Web Model 83356.STEP',
    '2017-02-01T15:19:26',
    ( '' ),
    ( '' ),
    'SwSTEP 2.0',
    'SolidWorks 2016',
    '' );
FILE_SCHEMA (( 'CONFIG_CONTROL_DESIGN' ));
ENDSEC;

DATA;
#1 = PERSON_AND_ORGANIZATION ( #114, #15 ) ;
#2 = PRODUCT_DEFINITION ( 'UNKNOWN', '', #139, #91 ) ;
#3 = DIRECTION ( 'NONE',  ( 0.0000000000000000000, 0.0000000000000000000, 1.000000000000000000 ) ) ;
#4 = APPROVAL_ROLE ( '' ) ;
#5 = PERSON_AND_ORGANIZATION_ROLE ( 'creator' ) ;
#6 = ADVANCED_BREP_SHAPE_REPRESENTATION ( 'Web Model 83356', ( #124, #28 ), #78 ) ;
#7 = APPROVAL_PERSON_ORGANIZATION ( #19, #148, #4 ) ;
#8 = CALENDAR_DATE ( 2017, 1, 2 ) ;
#9 = EDGE_CURVE ( 'NONE', #39, #45, #154, .T. ) ;
#10 = DATE_AND_TIME ( #43, #41 ) ;
#11 = DATE_AND_TIME ( #117, #166 ) ;
#12 = ORIENTED_EDGE ( 'NONE', *, *, #172, .T. ) ;
#13 = DIRECTION ( 'NONE',  ( 1.000000000000000000, 0.0000000000000000000, 0.0000000000000000000 ) ) ;
#14 = DIRECTION ( 'NONE',  ( -1.000000000000000000, -0.0000000000000000000, -0.0000000000000000000 ) ) ;
#15 = ORGANIZATION ( 'UNSPECIFIED', 'UNSPECIFIED', '' ) ;
#16 = APPROVAL_STATUS ( 'not_yet_approved' ) ;
#17 = PERSON_AND_ORGANIZATION_ROLE ( 'classification_officer' ) ;
#18 = APPLICATION_PROTOCOL_DEFINITION ( 'international standard', 'config_control_design', 1994, #54 ) ;
#19 = PERSON_AND_ORGANIZATION ( #114, #15 ) ;
#20 = ORIENTED_EDGE ( 'NONE', *, *, #118, .T. ) ;
#21 = CARTESIAN_POINT ( 'NONE',  ( 2.000000000000000000, 0.0000000000000000000, 0.0000000000000000000 ) ) ;
#22 = AXIS2_PLACEMENT_3D ( 'NONE', #88, #115, #157 ) ;
#23 = CC_DESIGN_DATE_AND_TIME_ASSIGNMENT ( #156, #125, ( #149 ) ) ;
#24 = ADVANCED_FACE ( 'NONE', ( #108 ), #76, .T. ) ;
#25 = PERSON_AND_ORGANIZATION ( #114, #15 ) ;
#26 = PERSON_AND_ORGANIZATION ( #114, #15 ) ;
#27 = APPROVAL_ROLE ( '' ) ;
#28 = AXIS2_PLACEMENT_3D ( 'NONE', #64, #3, #49 ) ;
#29 = LINE ( 'NONE', #31, #169 ) ;
#30 = CLOSED_SHELL ( 'NONE', ( #24, #75, #62, #92 ) ) ;
#31 = CARTESIAN_POINT ( 'NONE',  ( 2.000000000000000000, 0.0000000000000000000, 12.50000000000000000 ) ) ;
#32 = DIRECTION ( 'NONE',  ( 1.000000000000000000, 0.0000000000000000000, 0.0000000000000000000 ) ) ;
#33 = AXIS2_PLACEMENT_3D ( 'NONE', #86, #120, #134 ) ;
#34 = VERTEX_POINT ( 'NONE', #130 ) ;
#35 = ORIENTED_EDGE ( 'NONE', *, *, #145, .T. ) ;
#36 = CARTESIAN_POINT ( 'NONE',  ( 2.000000000000000000, 0.0000000000000000000, 0.0000000000000000000 ) ) ;
#37 = DIRECTION ( 'NONE',  ( -1.000000000000000000, -0.0000000000000000000, -0.0000000000000000000 ) ) ;
#38 = APPROVAL_DATE_TIME ( #11, #148 ) ;
#39 = VERTEX_POINT ( 'NONE', #161 ) ;
#40 = APPROVAL ( #16, 'UNSPECIFIED' ) ;
#41 = LOCAL_TIME ( 10, 19, 26.00000000000000000, #47 ) ;
#42 = CIRCLE ( 'NONE', #168, 12.50000000000000000 ) ;
#43 = CALENDAR_DATE ( 2017, 1, 2 ) ;
#44 = DIRECTION ( 'NONE',  ( -1.000000000000000000, -0.0000000000000000000, -0.0000000000000000000 ) ) ;
#45 = VERTEX_POINT ( 'NONE', #101 ) ;
#46 = ORIENTED_EDGE ( 'NONE', *, *, #145, .F. ) ;
#47 = COORDINATED_UNIVERSAL_TIME_OFFSET ( 5, 0, .BEHIND. ) ;
#48 = CALENDAR_DATE ( 2017, 1, 2 ) ;
#49 = DIRECTION ( 'NONE',  ( 1.000000000000000000, 0.0000000000000000000, 0.0000000000000000000 ) ) ;
#50 = EDGE_CURVE ( 'NONE', #34, #39, #42, .T. ) ;
#51 = PRODUCT_DEFINITION_SHAPE ( 'NONE', 'NONE',  #2 ) ;
#52 = COORDINATED_UNIVERSAL_TIME_OFFSET ( 5, 0, .BEHIND. ) ;
#53 = AXIS2_PLACEMENT_3D ( 'NONE', #36, #104, #129 ) ;
#54 = APPLICATION_CONTEXT ( 'configuration controlled 3d designs of mechanical parts and assemblies' ) ;
#55 = SECURITY_CLASSIFICATION_LEVEL ( 'unclassified' ) ;
#56 = CALENDAR_DATE ( 2017, 1, 2 ) ;
#57 = AXIS2_PLACEMENT_3D ( 'NONE', #60, #73, #61 ) ;
#58 = DATE_AND_TIME ( #48, #68 ) ;
#59 = DIRECTION ( 'NONE',  ( 0.0000000000000000000, 0.0000000000000000000, -1.000000000000000000 ) ) ;
#60 = CARTESIAN_POINT ( 'NONE',  ( 0.0000000000000000000, 0.0000000000000000000, 0.0000000000000000000 ) ) ;
#61 = DIRECTION ( 'NONE',  ( 0.0000000000000000000, 0.0000000000000000000, -1.000000000000000000 ) ) ;
#62 = ADVANCED_FACE ( 'NONE', ( #132 ), #90, .T. ) ;
#63 = AXIS2_PLACEMENT_3D ( 'NONE', #170, #32, #135 ) ;
#64 = CARTESIAN_POINT ( 'NONE',  ( 0.0000000000000000000, 0.0000000000000000000, 0.0000000000000000000 ) ) ;
#65 = EDGE_LOOP ( 'NONE', ( #79, #105, #99, #20 ) ) ;
#66 = ORIENTED_EDGE ( 'NONE', *, *, #109, .F. ) ;
#67 = CC_DESIGN_APPROVAL ( #100, ( #149 ) ) ;
#68 = LOCAL_TIME ( 10, 19, 26.00000000000000000, #111 ) ;
#69 =( NAMED_UNIT ( * ) PLANE_ANGLE_UNIT ( ) SI_UNIT ( $, .RADIAN. ) );
#70 = EDGE_LOOP ( 'NONE', ( #46, #175, #12, #66 ) ) ;
#71 = CC_DESIGN_APPROVAL ( #40, ( #2 ) ) ;
#72 = CARTESIAN_POINT ( 'NONE',  ( 2.000000000000000000, 1.530808498934191500E-015, -12.50000000000000000 ) ) ;
#73 = DIRECTION ( 'NONE',  ( 1.000000000000000000, 0.0000000000000000000, 0.0000000000000000000 ) ) ;
#74 = LOCAL_TIME ( 10, 19, 26.00000000000000000, #52 ) ;
#75 = ADVANCED_FACE ( 'NONE', ( #98 ), #116, .T. ) ;
#76 = CYLINDRICAL_SURFACE ( 'NONE', #165, 12.50000000000000000 ) ;
#77 = APPROVAL_PERSON_ORGANIZATION ( #26, #100, #155 ) ;
#78 =( GEOMETRIC_REPRESENTATION_CONTEXT ( 3 ) GLOBAL_UNCERTAINTY_ASSIGNED_CONTEXT ( ( #131 ) ) GLOBAL_UNIT_ASSIGNED_CONTEXT ( ( #110, #69, #80 ) ) REPRESENTATION_CONTEXT ( 'NONE', 'WORKASPACE' ) );
#79 = ORIENTED_EDGE ( 'NONE', *, *, #9, .F. ) ;
#80 =( NAMED_UNIT ( * ) SI_UNIT ( $, .STERADIAN. ) SOLID_ANGLE_UNIT ( ) );
#81 = COORDINATED_UNIVERSAL_TIME_OFFSET ( 5, 0, .BEHIND. ) ;
#82 = DATE_AND_TIME ( #8, #74 ) ;
#83 = APPLICATION_PROTOCOL_DEFINITION ( 'international standard', 'config_control_design', 1994, #95 ) ;
#84 = CC_DESIGN_PERSON_AND_ORGANIZATION_ASSIGNMENT ( #159, #153, ( #102 ) ) ;
#85 = COORDINATED_UNIVERSAL_TIME_OFFSET ( 5, 0, .BEHIND. ) ;
#86 = CARTESIAN_POINT ( 'NONE',  ( 0.0000000000000000000, 0.0000000000000000000, 0.0000000000000000000 ) ) ;
#87 = CIRCLE ( 'NONE', #33, 12.50000000000000000 ) ;
#88 = CARTESIAN_POINT ( 'NONE',  ( 2.000000000000000000, 0.0000000000000000000, 0.0000000000000000000 ) ) ;
#89 = VERTEX_POINT ( 'NONE', #160 ) ;
#90 = PLANE ( 'NONE',  #22 ) ;
#91 = DESIGN_CONTEXT ( 'detailed design', #54, 'design' ) ;
#92 = ADVANCED_FACE ( 'NONE', ( #147 ), #144, .F. ) ;
#93 = PERSON_AND_ORGANIZATION ( #114, #15 ) ;
#94 = CC_DESIGN_PERSON_AND_ORGANIZATION_ASSIGNMENT ( #141, #138, ( #2 ) ) ;
#95 = APPLICATION_CONTEXT ( 'configuration controlled 3d designs of mechanical parts and assemblies' ) ;
#96 = PERSON_AND_ORGANIZATION_ROLE ( 'design_supplier' ) ;
#97 = MECHANICAL_CONTEXT ( 'NONE', #95, 'mechanical' ) ;
#98 = FACE_OUTER_BOUND ( 'NONE', #65, .T. ) ;
#99 = ORIENTED_EDGE ( 'NONE', *, *, #109, .T. ) ;
#100 = APPROVAL ( #123, 'UNSPECIFIED' ) ;
#101 = CARTESIAN_POINT ( 'NONE',  ( 0.0000000000000000000, 1.530808498934191500E-015, -12.50000000000000000 ) ) ;
#102 = PRODUCT ( 'Web Model 83356', 'Web Model 83356', '', ( #97 ) ) ;
#103 = CC_DESIGN_APPROVAL ( #148, ( #139 ) ) ;
#104 = DIRECTION ( 'NONE',  ( -1.000000000000000000, -0.0000000000000000000, -0.0000000000000000000 ) ) ;
#105 = ORIENTED_EDGE ( 'NONE', *, *, #50, .F. ) ;
#106 = EDGE_LOOP ( 'NONE', ( #136, #142 ) ) ;
#107 = EDGE_LOOP ( 'NONE', ( #171, #35 ) ) ;
#108 = FACE_OUTER_BOUND ( 'NONE', #70, .T. ) ;
#109 = EDGE_CURVE ( 'NONE', #34, #89, #29, .T. ) ;
#110 =( LENGTH_UNIT ( ) NAMED_UNIT ( * ) SI_UNIT ( .MILLI., .METRE. ) );
#111 = COORDINATED_UNIVERSAL_TIME_OFFSET ( 5, 0, .BEHIND. ) ;
#112 = APPROVAL_PERSON_ORGANIZATION ( #119, #40, #27 ) ;
#113 = AXIS2_PLACEMENT_3D ( 'NONE', #167, #151, #140 ) ;
#114 = PERSON ( 'UNSPECIFIED', 'UNSPECIFIED', 'UNSPECIFIED', ('UNSPECIFIED'), ('UNSPECIFIED'), ('UNSPECIFIED') ) ;
#115 = DIRECTION ( 'NONE',  ( 1.000000000000000000, 0.0000000000000000000, 0.0000000000000000000 ) ) ;
#116 = CYLINDRICAL_SURFACE ( 'NONE', #53, 12.50000000000000000 ) ;
#117 = CALENDAR_DATE ( 2017, 1, 2 ) ;
#118 = EDGE_CURVE ( 'NONE', #89, #45, #87, .T. ) ;
#119 = PERSON_AND_ORGANIZATION ( #114, #15 ) ;
#120 = DIRECTION ( 'NONE',  ( 1.000000000000000000, 0.0000000000000000000, 0.0000000000000000000 ) ) ;
#121 = CC_DESIGN_PERSON_AND_ORGANIZATION_ASSIGNMENT ( #1, #5, ( #139 ) ) ;
#122 = DATE_TIME_ROLE ( 'creation_date' ) ;
#123 = APPROVAL_STATUS ( 'not_yet_approved' ) ;
#124 = MANIFOLD_SOLID_BREP ( 'Extrude1', #30 ) ;
#125 = DATE_TIME_ROLE ( 'classification_date' ) ;
#126 = APPROVAL_STATUS ( 'not_yet_approved' ) ;
#127 = CC_DESIGN_DATE_AND_TIME_ASSIGNMENT ( #58, #122, ( #2 ) ) ;
#128 = DIRECTION ( 'NONE',  ( 0.0000000000000000000, 0.0000000000000000000, 1.000000000000000000 ) ) ;
#129 = DIRECTION ( 'NONE',  ( 0.0000000000000000000, 0.0000000000000000000, 1.000000000000000000 ) ) ;
#130 = CARTESIAN_POINT ( 'NONE',  ( 2.000000000000000000, 0.0000000000000000000, 12.50000000000000000 ) ) ;
#131 = UNCERTAINTY_MEASURE_WITH_UNIT (LENGTH_MEASURE( 1.000000000000000100E-005 ), #110, 'distance_accuracy_value', 'NONE');
#132 = FACE_OUTER_BOUND ( 'NONE', #107, .T. ) ;
#133 = CC_DESIGN_PERSON_AND_ORGANIZATION_ASSIGNMENT ( #25, #96, ( #139 ) ) ;
#134 = DIRECTION ( 'NONE',  ( 0.0000000000000000000, 0.0000000000000000000, -1.000000000000000000 ) ) ;
#135 = DIRECTION ( 'NONE',  ( 0.0000000000000000000, 0.0000000000000000000, -1.000000000000000000 ) ) ;
#136 = ORIENTED_EDGE ( 'NONE', *, *, #118, .F. ) ;
#137 = APPROVAL_DATE_TIME ( #82, #40 ) ;
#138 = PERSON_AND_ORGANIZATION_ROLE ( 'creator' ) ;
#139 = PRODUCT_DEFINITION_FORMATION_WITH_SPECIFIED_SOURCE ( 'ANY', '', #102, .NOT_KNOWN. ) ;
#140 = DIRECTION ( 'NONE',  ( 0.0000000000000000000, 0.0000000000000000000, -1.000000000000000000 ) ) ;
#141 = PERSON_AND_ORGANIZATION ( #114, #15 ) ;
#142 = ORIENTED_EDGE ( 'NONE', *, *, #172, .F. ) ;
#143 = VECTOR ( 'NONE', #37, 1000.000000000000000 ) ;
#144 = PLANE ( 'NONE',  #57 ) ;
#145 = EDGE_CURVE ( 'NONE', #39, #34, #150, .T. ) ;
#146 = APPROVAL_DATE_TIME ( #10, #100 ) ;
#147 = FACE_OUTER_BOUND ( 'NONE', #106, .T. ) ;
#148 = APPROVAL ( #126, 'UNSPECIFIED' ) ;
#149 = SECURITY_CLASSIFICATION ( '', '', #55 ) ;
#150 = CIRCLE ( 'NONE', #113, 12.50000000000000000 ) ;
#151 = DIRECTION ( 'NONE',  ( 1.000000000000000000, 0.0000000000000000000, 0.0000000000000000000 ) ) ;
#152 = LOCAL_TIME ( 10, 19, 26.00000000000000000, #85 ) ;
#153 = PERSON_AND_ORGANIZATION_ROLE ( 'design_owner' ) ;
#154 = LINE ( 'NONE', #72, #143 ) ;
#155 = APPROVAL_ROLE ( '' ) ;
#156 = DATE_AND_TIME ( #56, #152 ) ;
#157 = DIRECTION ( 'NONE',  ( 0.0000000000000000000, 0.0000000000000000000, -1.000000000000000000 ) ) ;
#158 = CC_DESIGN_SECURITY_CLASSIFICATION ( #149, ( #139 ) ) ;
#159 = PERSON_AND_ORGANIZATION ( #114, #15 ) ;
#160 = CARTESIAN_POINT ( 'NONE',  ( 0.0000000000000000000, 0.0000000000000000000, 12.50000000000000000 ) ) ;
#161 = CARTESIAN_POINT ( 'NONE',  ( 2.000000000000000000, 1.530808498934191500E-015, -12.50000000000000000 ) ) ;
#162 = CC_DESIGN_PERSON_AND_ORGANIZATION_ASSIGNMENT ( #93, #17, ( #149 ) ) ;
#163 = SHAPE_DEFINITION_REPRESENTATION ( #51, #6 ) ;
#164 = CIRCLE ( 'NONE', #63, 12.50000000000000000 ) ;
#165 = AXIS2_PLACEMENT_3D ( 'NONE', #174, #14, #128 ) ;
#166 = LOCAL_TIME ( 10, 19, 26.00000000000000000, #81 ) ;
#167 = CARTESIAN_POINT ( 'NONE',  ( 2.000000000000000000, 0.0000000000000000000, 0.0000000000000000000 ) ) ;
#168 = AXIS2_PLACEMENT_3D ( 'NONE', #21, #13, #59 ) ;
#169 = VECTOR ( 'NONE', #44, 1000.000000000000000 ) ;
#170 = CARTESIAN_POINT ( 'NONE',  ( 0.0000000000000000000, 0.0000000000000000000, 0.0000000000000000000 ) ) ;
#171 = ORIENTED_EDGE ( 'NONE', *, *, #50, .T. ) ;
#172 = EDGE_CURVE ( 'NONE', #45, #89, #164, .T. ) ;
#173 = PRODUCT_RELATED_PRODUCT_CATEGORY ( 'detail', '', ( #102 ) ) ;
#174 = CARTESIAN_POINT ( 'NONE',  ( 2.000000000000000000, 0.0000000000000000000, 0.0000000000000000000 ) ) ;
#175 = ORIENTED_EDGE ( 'NONE', *, *, #9, .T. ) ;
ENDSEC;
END-ISO-10303-21;
