ISO-10303-21;
HEADER;
FILE_DESCRIPTION (( 'STEP AP203' ),
    '1' );
FILE_NAME ('Web Model 49581_49581.step',
    '2019-04-23T14:11:09',
    ( '' ),
    ( '' ),
    'SwSTEP 2.0',
    'SolidWorks 2018',
    '' );
FILE_SCHEMA (( 'CONFIG_CONTROL_DESIGN' ));
ENDSEC;

DATA;
#1 = PERSON_AND_ORGANIZATION ( #81, #84 ) ;
#2 = VERTEX_POINT ( 'NONE', #50 ) ;
#3 = EDGE_CURVE ( 'NONE', #102, #185, #64, .T. ) ;
#4 = DATE_AND_TIME ( #124, #196 ) ;
#5 = DATE_TIME_ROLE ( 'classification_date' ) ;
#6 = COORDINATED_UNIVERSAL_TIME_OFFSET ( 5, 0, .BEHIND. ) ;
#7 = DIRECTION ( 'NONE',  ( -1.000000000000000000, 0.0000000000000000000, 0.0000000000000000000 ) ) ;
#8 = PLANE ( 'NONE',  #12 ) ;
#9 = ORIENTED_EDGE ( 'NONE', *, *, #165, .T. ) ;
#10 = ORIENTED_EDGE ( 'NONE', *, *, #205, .F. ) ;
#11 = CARTESIAN_POINT ( 'NONE',  ( -12.50000000000000000, 12.50000000000000000, 3.000000000000000000 ) ) ;
#12 = AXIS2_PLACEMENT_3D ( 'NONE', #125, #47, #146 ) ;
#13 = CARTESIAN_POINT ( 'NONE',  ( 12.50000000000000000, -12.50000000000000000, 3.000000000000000000 ) ) ;
#14 = CARTESIAN_POINT ( 'NONE',  ( -12.50000000000000000, -12.50000000000000000, 3.000000000000000000 ) ) ;
#15 = CARTESIAN_POINT ( 'NONE',  ( 0.0000000000000000000, 0.0000000000000000000, 0.0000000000000000000 ) ) ;
#16 = DATE_AND_TIME ( #119, #170 ) ;
#17 = DIRECTION ( 'NONE',  ( 0.0000000000000000000, 1.000000000000000000, 0.0000000000000000000 ) ) ;
#18 = CARTESIAN_POINT ( 'NONE',  ( 12.50000000000000000, -12.50000000000000000, 3.000000000000000000 ) ) ;
#19 = VECTOR ( 'NONE', #73, 1000.000000000000000 ) ;
#20 =( GEOMETRIC_REPRESENTATION_CONTEXT ( 3 ) GLOBAL_UNCERTAINTY_ASSIGNED_CONTEXT ( ( #101 ) ) GLOBAL_UNIT_ASSIGNED_CONTEXT ( ( #110, #153, #57 ) ) REPRESENTATION_CONTEXT ( 'NONE', 'WORKASPACE' ) );
#21 = AXIS2_PLACEMENT_3D ( 'NONE', #166, #65, #48 ) ;
#22 = ORIENTED_EDGE ( 'NONE', *, *, #75, .T. ) ;
#23 = APPROVAL_PERSON_ORGANIZATION ( #191, #231, #218 ) ;
#24 = VERTEX_POINT ( 'NONE', #11 ) ;
#25 = EDGE_LOOP ( 'NONE', ( #9, #10, #41, #182 ) ) ;
#26 = ORIENTED_EDGE ( 'NONE', *, *, #122, .T. ) ;
#27 = SHAPE_DEFINITION_REPRESENTATION ( #198, #175 ) ;
#28 = LINE ( 'NONE', #216, #167 ) ;
#29 = DIRECTION ( 'NONE',  ( 0.0000000000000000000, 0.0000000000000000000, -1.000000000000000000 ) ) ;
#30 = CARTESIAN_POINT ( 'NONE',  ( 12.50000000000000000, -12.50000000000000000, 3.000000000000000000 ) ) ;
#31 = PLANE ( 'NONE',  #80 ) ;
#32 = ORIENTED_EDGE ( 'NONE', *, *, #112, .F. ) ;
#33 = FACE_OUTER_BOUND ( 'NONE', #211, .T. ) ;
#34 = DIRECTION ( 'NONE',  ( 0.0000000000000000000, 0.0000000000000000000, -1.000000000000000000 ) ) ;
#35 = ADVANCED_FACE ( 'NONE', ( #229 ), #8, .F. ) ;
#36 = DIRECTION ( 'NONE',  ( 0.0000000000000000000, 0.0000000000000000000, -1.000000000000000000 ) ) ;
#37 = ADVANCED_FACE ( 'NONE', ( #55 ), #149, .F. ) ;
#38 = ORIENTED_EDGE ( 'NONE', *, *, #137, .F. ) ;
#39 = ORIENTED_EDGE ( 'NONE', *, *, #112, .T. ) ;
#40 = PERSON_AND_ORGANIZATION ( #81, #84 ) ;
#41 = ORIENTED_EDGE ( 'NONE', *, *, #115, .F. ) ;
#42 = APPROVAL ( #171, 'UNSPECIFIED' ) ;
#43 = APPROVAL_DATE_TIME ( #16, #42 ) ;
#44 = PRODUCT ( 'Web Model 49581_49581', 'Web Model 49581_49581', '', ( #132 ) ) ;
#45 = ORIENTED_EDGE ( 'NONE', *, *, #165, .F. ) ;
#46 = DATE_AND_TIME ( #83, #235 ) ;
#47 = DIRECTION ( 'NONE',  ( 0.0000000000000000000, 0.0000000000000000000, -1.000000000000000000 ) ) ;
#48 = DIRECTION ( 'NONE',  ( 1.000000000000000000, 0.0000000000000000000, 0.0000000000000000000 ) ) ;
#49 = VERTEX_POINT ( 'NONE', #30 ) ;
#50 = CARTESIAN_POINT ( 'NONE',  ( 12.50000000000000000, 12.50000000000000000, 3.000000000000000000 ) ) ;
#51 = EDGE_CURVE ( 'NONE', #2, #24, #189, .T. ) ;
#52 = CARTESIAN_POINT ( 'NONE',  ( 12.50000000000000000, 12.50000000000000000, 0.0000000000000000000 ) ) ;
#53 = CARTESIAN_POINT ( 'NONE',  ( 12.50000000000000000, -12.50000000000000000, 0.0000000000000000000 ) ) ;
#54 = DIRECTION ( 'NONE',  ( 1.000000000000000000, 0.0000000000000000000, 0.0000000000000000000 ) ) ;
#55 = FACE_OUTER_BOUND ( 'NONE', #103, .T. ) ;
#56 = APPROVAL_ROLE ( '' ) ;
#57 =( NAMED_UNIT ( * ) SI_UNIT ( $, .STERADIAN. ) SOLID_ANGLE_UNIT ( ) );
#58 = ORIENTED_EDGE ( 'NONE', *, *, #205, .T. ) ;
#59 = PERSON_AND_ORGANIZATION ( #81, #84 ) ;
#60 = PERSON_AND_ORGANIZATION_ROLE ( 'classification_officer' ) ;
#61 = LINE ( 'NONE', #66, #78 ) ;
#62 = AXIS2_PLACEMENT_3D ( 'NONE', #150, #106, #29 ) ;
#63 = COORDINATED_UNIVERSAL_TIME_OFFSET ( 5, 0, .BEHIND. ) ;
#64 = LINE ( 'NONE', #164, #79 ) ;
#65 = DIRECTION ( 'NONE',  ( -0.0000000000000000000, 1.000000000000000000, 0.0000000000000000000 ) ) ;
#66 = CARTESIAN_POINT ( 'NONE',  ( -12.50000000000000000, -12.50000000000000000, 0.0000000000000000000 ) ) ;
#67 = VECTOR ( 'NONE', #108, 1000.000000000000000 ) ;
#68 = ORIENTED_EDGE ( 'NONE', *, *, #156, .F. ) ;
#69 = DIRECTION ( 'NONE',  ( -1.000000000000000000, 0.0000000000000000000, 0.0000000000000000000 ) ) ;
#70 = CARTESIAN_POINT ( 'NONE',  ( -12.50000000000000000, -12.50000000000000000, 3.000000000000000000 ) ) ;
#71 = ORIENTED_EDGE ( 'NONE', *, *, #99, .T. ) ;
#72 = CALENDAR_DATE ( 2019, 23, 4 ) ;
#73 = DIRECTION ( 'NONE',  ( 0.0000000000000000000, 1.000000000000000000, 0.0000000000000000000 ) ) ;
#74 = LINE ( 'NONE', #214, #147 ) ;
#75 = EDGE_CURVE ( 'NONE', #232, #185, #127, .T. ) ;
#76 = APPLICATION_PROTOCOL_DEFINITION ( 'international standard', 'config_control_design', 1994, #180 ) ;
#77 = DATE_TIME_ROLE ( 'creation_date' ) ;
#78 = VECTOR ( 'NONE', #181, 1000.000000000000000 ) ;
#79 = VECTOR ( 'NONE', #126, 1000.000000000000000 ) ;
#80 = AXIS2_PLACEMENT_3D ( 'NONE', #18, #69, #113 ) ;
#81 = PERSON ( 'UNSPECIFIED', 'UNSPECIFIED', 'UNSPECIFIED', ('UNSPECIFIED'), ('UNSPECIFIED'), ('UNSPECIFIED') ) ;
#82 = SECURITY_CLASSIFICATION_LEVEL ( 'unclassified' ) ;
#83 = CALENDAR_DATE ( 2019, 23, 4 ) ;
#84 = ORGANIZATION ( 'UNSPECIFIED', 'UNSPECIFIED', '' ) ;
#85 = APPROVAL_STATUS ( 'not_yet_approved' ) ;
#86 = AXIS2_PLACEMENT_3D ( 'NONE', #197, #36, #209 ) ;
#87 = DIRECTION ( 'NONE',  ( 0.0000000000000000000, 0.0000000000000000000, -1.000000000000000000 ) ) ;
#88 = LINE ( 'NONE', #194, #67 ) ;
#89 = AXIS2_PLACEMENT_3D ( 'NONE', #15, #155, #54 ) ;
#90 = CARTESIAN_POINT ( 'NONE',  ( -12.50000000000000000, 12.50000000000000000, 3.000000000000000000 ) ) ;
#91 = ADVANCED_FACE ( 'NONE', ( #135 ), #230, .F. ) ;
#92 = DIRECTION ( 'NONE',  ( 0.0000000000000000000, 0.0000000000000000000, -1.000000000000000000 ) ) ;
#93 = DIRECTION ( 'NONE',  ( 0.0000000000000000000, 1.000000000000000000, 0.0000000000000000000 ) ) ;
#94 = APPLICATION_CONTEXT ( 'configuration controlled 3d designs of mechanical parts and assemblies' ) ;
#95 = APPROVAL_DATE_TIME ( #46, #202 ) ;
#96 = CARTESIAN_POINT ( 'NONE',  ( -12.50000000000000000, 12.50000000000000000, 0.0000000000000000000 ) ) ;
#97 = PERSON_AND_ORGANIZATION ( #81, #84 ) ;
#98 = APPROVAL_DATE_TIME ( #183, #231 ) ;
#99 = EDGE_CURVE ( 'NONE', #206, #102, #88, .T. ) ;
#100 = PERSON_AND_ORGANIZATION ( #81, #84 ) ;
#101 = UNCERTAINTY_MEASURE_WITH_UNIT (LENGTH_MEASURE( 1.000000000000000082E-05 ), #110, 'distance_accuracy_value', 'NONE');
#102 = VERTEX_POINT ( 'NONE', #96 ) ;
#103 = EDGE_LOOP ( 'NONE', ( #71, #38, #145, #58 ) ) ;
#104 = APPROVAL_ROLE ( '' ) ;
#105 = LINE ( 'NONE', #177, #163 ) ;
#106 = DIRECTION ( 'NONE',  ( 0.0000000000000000000, -1.000000000000000000, 0.0000000000000000000 ) ) ;
#107 = ORIENTED_EDGE ( 'NONE', *, *, #99, .F. ) ;
#108 = DIRECTION ( 'NONE',  ( -1.000000000000000000, 0.0000000000000000000, 0.0000000000000000000 ) ) ;
#109 = PRODUCT_DEFINITION ( 'UNKNOWN', '', #227, #160 ) ;
#110 =( LENGTH_UNIT ( ) NAMED_UNIT ( * ) SI_UNIT ( .MILLI., .METRE. ) );
#111 = APPLICATION_PROTOCOL_DEFINITION ( 'international standard', 'config_control_design', 1994, #94 ) ;
#112 = EDGE_CURVE ( 'NONE', #185, #121, #61, .T. ) ;
#113 = DIRECTION ( 'NONE',  ( 0.0000000000000000000, 0.0000000000000000000, 1.000000000000000000 ) ) ;
#114 = ADVANCED_FACE ( 'NONE', ( #141 ), #152, .T. ) ;
#115 = EDGE_CURVE ( 'NONE', #49, #2, #161, .T. ) ;
#116 = DIRECTION ( 'NONE',  ( 1.000000000000000000, 0.0000000000000000000, 0.0000000000000000000 ) ) ;
#117 = VECTOR ( 'NONE', #34, 1000.000000000000000 ) ;
#118 = EDGE_LOOP ( 'NONE', ( #39, #169, #123, #22 ) ) ;
#119 = CALENDAR_DATE ( 2019, 23, 4 ) ;
#120 = CC_DESIGN_PERSON_AND_ORGANIZATION_ASSIGNMENT ( #1, #60, ( #162 ) ) ;
#121 = VERTEX_POINT ( 'NONE', #53 ) ;
#122 = EDGE_CURVE ( 'NONE', #232, #49, #105, .T. ) ;
#123 = ORIENTED_EDGE ( 'NONE', *, *, #122, .F. ) ;
#124 = CALENDAR_DATE ( 2019, 23, 4 ) ;
#125 = CARTESIAN_POINT ( 'NONE',  ( 0.0000000000000000000, 0.0000000000000000000, 3.000000000000000000 ) ) ;
#126 = DIRECTION ( 'NONE',  ( 0.0000000000000000000, -1.000000000000000000, 0.0000000000000000000 ) ) ;
#127 = LINE ( 'NONE', #208, #174 ) ;
#128 = CARTESIAN_POINT ( 'NONE',  ( 12.50000000000000000, -12.50000000000000000, 3.000000000000000000 ) ) ;
#129 = ORIENTED_EDGE ( 'NONE', *, *, #51, .T. ) ;
#130 = DIRECTION ( 'NONE',  ( 0.0000000000000000000, 0.0000000000000000000, -1.000000000000000000 ) ) ;
#131 = PERSON_AND_ORGANIZATION ( #81, #84 ) ;
#132 = MECHANICAL_CONTEXT ( 'NONE', #94, 'mechanical' ) ;
#133 = ADVANCED_FACE ( 'NONE', ( #176 ), #31, .F. ) ;
#134 = CARTESIAN_POINT ( 'NONE',  ( -12.50000000000000000, -12.50000000000000000, 0.0000000000000000000 ) ) ;
#135 = FACE_OUTER_BOUND ( 'NONE', #118, .T. ) ;
#136 = APPROVAL_STATUS ( 'not_yet_approved' ) ;
#137 = EDGE_CURVE ( 'NONE', #24, #102, #203, .T. ) ;
#138 = EDGE_LOOP ( 'NONE', ( #151, #129, #223, #26 ) ) ;
#139 = APPROVAL_PERSON_ORGANIZATION ( #100, #202, #104 ) ;
#140 = CC_DESIGN_DATE_AND_TIME_ASSIGNMENT ( #4, #77, ( #109 ) ) ;
#141 = FACE_OUTER_BOUND ( 'NONE', #159, .T. ) ;
#142 = AXIS2_PLACEMENT_3D ( 'NONE', #14, #168, #17 ) ;
#143 = ORIENTED_EDGE ( 'NONE', *, *, #75, .F. ) ;
#144 = CALENDAR_DATE ( 2019, 23, 4 ) ;
#145 = ORIENTED_EDGE ( 'NONE', *, *, #51, .F. ) ;
#146 = DIRECTION ( 'NONE',  ( 0.0000000000000000000, -1.000000000000000000, 0.0000000000000000000 ) ) ;
#147 = VECTOR ( 'NONE', #234, 1000.000000000000000 ) ;
#148 = MANIFOLD_SOLID_BREP ( 'NONE', #190 ) ;
#149 = PLANE ( 'NONE',  #62 ) ;
#150 = CARTESIAN_POINT ( 'NONE',  ( -12.50000000000000000, 12.50000000000000000, 3.000000000000000000 ) ) ;
#151 = ORIENTED_EDGE ( 'NONE', *, *, #115, .T. ) ;
#152 = PLANE ( 'NONE',  #86 ) ;
#153 =( NAMED_UNIT ( * ) PLANE_ANGLE_UNIT ( ) SI_UNIT ( $, .RADIAN. ) );
#154 = PERSON_AND_ORGANIZATION_ROLE ( 'design_owner' ) ;
#155 = DIRECTION ( 'NONE',  ( 0.0000000000000000000, 0.0000000000000000000, 1.000000000000000000 ) ) ;
#156 = EDGE_CURVE ( 'NONE', #24, #232, #74, .T. ) ;
#157 = PERSON_AND_ORGANIZATION_ROLE ( 'creator' ) ;
#158 = CC_DESIGN_APPROVAL ( #202, ( #162 ) ) ;
#159 = EDGE_LOOP ( 'NONE', ( #45, #32, #184, #107 ) ) ;
#160 = DESIGN_CONTEXT ( 'detailed design', #180, 'design' ) ;
#161 = LINE ( 'NONE', #128, #19 ) ;
#162 = SECURITY_CLASSIFICATION ( '', '', #82 ) ;
#163 = VECTOR ( 'NONE', #116, 1000.000000000000000 ) ;
#164 = CARTESIAN_POINT ( 'NONE',  ( -12.50000000000000000, -12.50000000000000000, 0.0000000000000000000 ) ) ;
#165 = EDGE_CURVE ( 'NONE', #121, #206, #28, .T. ) ;
#166 = CARTESIAN_POINT ( 'NONE',  ( -12.50000000000000000, -12.50000000000000000, 3.000000000000000000 ) ) ;
#167 = VECTOR ( 'NONE', #93, 1000.000000000000000 ) ;
#168 = DIRECTION ( 'NONE',  ( 1.000000000000000000, 0.0000000000000000000, 0.0000000000000000000 ) ) ;
#169 = ORIENTED_EDGE ( 'NONE', *, *, #195, .F. ) ;
#170 = LOCAL_TIME ( 10, 11, 9.000000000000000000, #173 ) ;
#171 = APPROVAL_STATUS ( 'not_yet_approved' ) ;
#172 = CC_DESIGN_PERSON_AND_ORGANIZATION_ASSIGNMENT ( #131, #154, ( #44 ) ) ;
#173 = COORDINATED_UNIVERSAL_TIME_OFFSET ( 5, 0, .BEHIND. ) ;
#174 = VECTOR ( 'NONE', #87, 1000.000000000000000 ) ;
#175 = ADVANCED_BREP_SHAPE_REPRESENTATION ( 'Web Model 49581_49581', ( #148, #89 ), #20 ) ;
#176 = FACE_OUTER_BOUND ( 'NONE', #25, .T. ) ;
#177 = CARTESIAN_POINT ( 'NONE',  ( -12.50000000000000000, -12.50000000000000000, 3.000000000000000000 ) ) ;
#178 = PERSON_AND_ORGANIZATION ( #81, #84 ) ;
#179 = CC_DESIGN_APPROVAL ( #42, ( #109 ) ) ;
#180 = APPLICATION_CONTEXT ( 'configuration controlled 3d designs of mechanical parts and assemblies' ) ;
#181 = DIRECTION ( 'NONE',  ( 1.000000000000000000, 0.0000000000000000000, 0.0000000000000000000 ) ) ;
#182 = ORIENTED_EDGE ( 'NONE', *, *, #195, .T. ) ;
#183 = DATE_AND_TIME ( #72, #186 ) ;
#184 = ORIENTED_EDGE ( 'NONE', *, *, #3, .F. ) ;
#185 = VERTEX_POINT ( 'NONE', #134 ) ;
#186 = LOCAL_TIME ( 10, 11, 9.000000000000000000, #221 ) ;
#187 = CC_DESIGN_PERSON_AND_ORGANIZATION_ASSIGNMENT ( #40, #157, ( #227 ) ) ;
#188 = CC_DESIGN_PERSON_AND_ORGANIZATION_ASSIGNMENT ( #59, #220, ( #109 ) ) ;
#189 = LINE ( 'NONE', #90, #219 ) ;
#190 = CLOSED_SHELL ( 'NONE', ( #133, #37, #199, #91, #35, #114 ) ) ;
#191 = PERSON_AND_ORGANIZATION ( #81, #84 ) ;
#192 = ORIENTED_EDGE ( 'NONE', *, *, #3, .T. ) ;
#193 = CARTESIAN_POINT ( 'NONE',  ( 12.50000000000000000, 12.50000000000000000, 3.000000000000000000 ) ) ;
#194 = CARTESIAN_POINT ( 'NONE',  ( -12.50000000000000000, 12.50000000000000000, 0.0000000000000000000 ) ) ;
#195 = EDGE_CURVE ( 'NONE', #49, #121, #217, .T. ) ;
#196 = LOCAL_TIME ( 10, 11, 9.000000000000000000, #6 ) ;
#197 = CARTESIAN_POINT ( 'NONE',  ( 0.0000000000000000000, 0.0000000000000000000, 0.0000000000000000000 ) ) ;
#198 = PRODUCT_DEFINITION_SHAPE ( 'NONE', 'NONE',  #109 ) ;
#199 = ADVANCED_FACE ( 'NONE', ( #33 ), #210, .F. ) ;
#200 = ORIENTED_EDGE ( 'NONE', *, *, #137, .T. ) ;
#201 = LOCAL_TIME ( 10, 11, 9.000000000000000000, #63 ) ;
#202 = APPROVAL ( #85, 'UNSPECIFIED' ) ;
#203 = LINE ( 'NONE', #233, #222 ) ;
#204 = CC_DESIGN_APPROVAL ( #231, ( #227 ) ) ;
#205 = EDGE_CURVE ( 'NONE', #2, #206, #225, .T. ) ;
#206 = VERTEX_POINT ( 'NONE', #52 ) ;
#207 = VECTOR ( 'NONE', #92, 1000.000000000000000 ) ;
#208 = CARTESIAN_POINT ( 'NONE',  ( -12.50000000000000000, -12.50000000000000000, 3.000000000000000000 ) ) ;
#209 = DIRECTION ( 'NONE',  ( 0.0000000000000000000, -1.000000000000000000, 0.0000000000000000000 ) ) ;
#210 = PLANE ( 'NONE',  #142 ) ;
#211 = EDGE_LOOP ( 'NONE', ( #192, #143, #68, #200 ) ) ;
#212 = CC_DESIGN_DATE_AND_TIME_ASSIGNMENT ( #224, #5, ( #162 ) ) ;
#213 = APPROVAL_PERSON_ORGANIZATION ( #97, #42, #56 ) ;
#214 = CARTESIAN_POINT ( 'NONE',  ( -12.50000000000000000, -12.50000000000000000, 3.000000000000000000 ) ) ;
#215 = CC_DESIGN_PERSON_AND_ORGANIZATION_ASSIGNMENT ( #178, #236, ( #227 ) ) ;
#216 = CARTESIAN_POINT ( 'NONE',  ( 12.50000000000000000, -12.50000000000000000, 0.0000000000000000000 ) ) ;
#217 = LINE ( 'NONE', #13, #117 ) ;
#218 = APPROVAL_ROLE ( '' ) ;
#219 = VECTOR ( 'NONE', #7, 1000.000000000000000 ) ;
#220 = PERSON_AND_ORGANIZATION_ROLE ( 'creator' ) ;
#221 = COORDINATED_UNIVERSAL_TIME_OFFSET ( 5, 0, .BEHIND. ) ;
#222 = VECTOR ( 'NONE', #130, 1000.000000000000000 ) ;
#223 = ORIENTED_EDGE ( 'NONE', *, *, #156, .T. ) ;
#224 = DATE_AND_TIME ( #144, #201 ) ;
#225 = LINE ( 'NONE', #193, #207 ) ;
#226 = CC_DESIGN_SECURITY_CLASSIFICATION ( #162, ( #227 ) ) ;
#227 = PRODUCT_DEFINITION_FORMATION_WITH_SPECIFIED_SOURCE ( 'ANY', '', #44, .NOT_KNOWN. ) ;
#228 = COORDINATED_UNIVERSAL_TIME_OFFSET ( 5, 0, .BEHIND. ) ;
#229 = FACE_OUTER_BOUND ( 'NONE', #138, .T. ) ;
#230 = PLANE ( 'NONE',  #21 ) ;
#231 = APPROVAL ( #136, 'UNSPECIFIED' ) ;
#232 = VERTEX_POINT ( 'NONE', #70 ) ;
#233 = CARTESIAN_POINT ( 'NONE',  ( -12.50000000000000000, 12.50000000000000000, 3.000000000000000000 ) ) ;
#234 = DIRECTION ( 'NONE',  ( 0.0000000000000000000, -1.000000000000000000, 0.0000000000000000000 ) ) ;
#235 = LOCAL_TIME ( 10, 11, 9.000000000000000000, #228 ) ;
#236 = PERSON_AND_ORGANIZATION_ROLE ( 'design_supplier' ) ;
#237 = PRODUCT_RELATED_PRODUCT_CATEGORY ( 'detail', '', ( #44 ) ) ;
ENDSEC;
END-ISO-10303-21;
