ISO-10303-21;
HEADER;
FILE_DESCRIPTION (( 'STEP AP214' ),
    '1' );
FILE_NAME ('24987-E0W.STEP',
    '2012-10-01T15:03:39',
    ( 'Admin' ),
    ( 'Thorlabs, Inc.' ),
    'SwSTEP 2.0',
    'SolidWorks 2011',
    '' );
FILE_SCHEMA (( 'AUTOMOTIVE_DESIGN' ));
ENDSEC;

DATA;
#1 =( NAMED_UNIT ( * ) SI_UNIT ( $, .STERADIAN. ) SOLID_ANGLE_UNIT ( ) );
#2 = PRESENTATION_LAYER_ASSIGNMENT (  '', '', ( #3 ) ) ;
#3 = STYLED_ITEM ( 'NONE', ( #24 ), #44 ) ;
#4 =( LENGTH_UNIT ( ) NAMED_UNIT ( * ) SI_UNIT ( .MILLI., .METRE. ) );
#5 = MECHANICAL_DESIGN_GEOMETRIC_PRESENTATION_REPRESENTATION (  '', ( #3 ), #12 ) ;
#6 = DIRECTION ( 'NONE',  ( -0.0000000000000000000, -0.0000000000000000000, 1.000000000000000000 ) ) ;
#7 = CARTESIAN_POINT ( 'NONE',  ( 0.0000000000000000000, 0.0000000000000000000, 0.5349066100367782000 ) ) ;
#8 = DIRECTION ( 'NONE',  ( 1.000000000000000000, 0.0000000000000000000, 0.0000000000000000000 ) ) ;
#9 =( NAMED_UNIT ( * ) PLANE_ANGLE_UNIT ( ) SI_UNIT ( $, .RADIAN. ) );
#10 = FILL_AREA_STYLE ('',( #329 ) ) ;
#11 = UNCERTAINTY_MEASURE_WITH_UNIT (LENGTH_MEASURE( 1.000000000000000100E-005 ), #4, 'distance_accuracy_value', 'NONE');
#12 =( GEOMETRIC_REPRESENTATION_CONTEXT ( 3 ) GLOBAL_UNCERTAINTY_ASSIGNED_CONTEXT ( ( #11 ) ) GLOBAL_UNIT_ASSIGNED_CONTEXT ( ( #4, #9, #14 ) ) REPRESENTATION_CONTEXT ( 'NONE', 'WORKASPACE' ) );
#13 =( NAMED_UNIT ( * ) SI_UNIT ( $, .STERADIAN. ) SOLID_ANGLE_UNIT ( ) );
#14 =( NAMED_UNIT ( * ) SI_UNIT ( $, .STERADIAN. ) SOLID_ANGLE_UNIT ( ) );
#15 = AXIS2_PLACEMENT_3D ( 'NONE', #19, #18, #16 ) ;
#16 = DIRECTION ( 'NONE',  ( 1.000000000000000000, 0.0000000000000000000, 0.0000000000000000000 ) ) ;
#17 = UNCERTAINTY_MEASURE_WITH_UNIT (LENGTH_MEASURE( 1.000000000000000100E-005 ), #145, 'distance_accuracy_value', 'NONE');
#18 = DIRECTION ( 'NONE',  ( -0.0000000000000000000, -0.0000000000000000000, 1.000000000000000000 ) ) ;
#19 = CARTESIAN_POINT ( 'NONE',  ( 0.0000000000000000000, 0.0000000000000000000, 1.464906610036777400 ) ) ;
#20 = CYLINDRICAL_SURFACE ( 'NONE', #15, 12.69999999999999900 ) ;
#21 = PRESENTATION_STYLE_ASSIGNMENT (( #31 ) ) ;
#22 = SURFACE_SIDE_STYLE ('',( #32 ) ) ;
#23 =( GEOMETRIC_REPRESENTATION_CONTEXT ( 3 ) GLOBAL_UNCERTAINTY_ASSIGNED_CONTEXT ( ( #17 ) ) GLOBAL_UNIT_ASSIGNED_CONTEXT ( ( #145, #144, #1 ) ) REPRESENTATION_CONTEXT ( 'NONE', 'WORKASPACE' ) );
#24 = PRESENTATION_STYLE_ASSIGNMENT (( #25 ) ) ;
#25 = SURFACE_STYLE_USAGE ( .BOTH. , #22 ) ;
#26 = PRESENTATION_LAYER_ASSIGNMENT (  '', '', ( #27 ) ) ;
#27 = STYLED_ITEM ( 'NONE', ( #21 ), #122 ) ;
#28 = COLOUR_RGB ( '',0.7960784313725489700, 0.8235294117647058400, 0.9372549019607843100 ) ;
#29 = SURFACE_SIDE_STYLE ('',( #30 ) ) ;
#30 = SURFACE_STYLE_FILL_AREA ( #10 ) ;
#31 = SURFACE_STYLE_USAGE ( .BOTH. , #29 ) ;
#32 = SURFACE_STYLE_FILL_AREA ( #33 ) ;
#33 = FILL_AREA_STYLE ('',( #34 ) ) ;
#34 = FILL_AREA_STYLE_COLOUR ( '', #28 ) ;
#35 = ADVANCED_FACE ( 'NONE', ( #62 ), #20, .T. ) ;
#36 = ORIENTED_EDGE ( 'NONE', *, *, #121, .F. ) ;
#37 = ORIENTED_EDGE ( 'NONE', *, *, #65, .T. ) ;
#38 = ORIENTED_EDGE ( 'NONE', *, *, #120, .T. ) ;
#39 = ORIENTED_EDGE ( 'NONE', *, *, #95, .F. ) ;
#40 =( LENGTH_UNIT ( ) NAMED_UNIT ( * ) SI_UNIT ( .MILLI., .METRE. ) );
#41 =( GEOMETRIC_REPRESENTATION_CONTEXT ( 3 ) GLOBAL_UNCERTAINTY_ASSIGNED_CONTEXT ( ( #42 ) ) GLOBAL_UNIT_ASSIGNED_CONTEXT ( ( #108, #107, #43 ) ) REPRESENTATION_CONTEXT ( 'NONE', 'WORKASPACE' ) );
#42 = UNCERTAINTY_MEASURE_WITH_UNIT (LENGTH_MEASURE( 1.000000000000000100E-005 ), #108, 'distance_accuracy_value', 'NONE');
#43 =( NAMED_UNIT ( * ) SI_UNIT ( $, .STERADIAN. ) SOLID_ANGLE_UNIT ( ) );
#44 = MANIFOLD_SOLID_BREP ( '24989-001-1-solid1', #103 ) ;
#45 = EDGE_LOOP ( 'NONE', ( #38, #52, #68, #131 ) ) ;
#46 = ORIENTED_EDGE ( 'NONE', *, *, #71, .F. ) ;
#47 = EDGE_LOOP ( 'NONE', ( #79, #130, #119 ) ) ;
#48 = FILL_AREA_STYLE ('',( #49 ) ) ;
#49 = FILL_AREA_STYLE_COLOUR ( '', #67 ) ;
#50 = ORIENTED_EDGE ( 'NONE', *, *, #75, .T. ) ;
#51 = ADVANCED_FACE ( 'NONE', ( #207 ), #172, .T. ) ;
#52 = ORIENTED_EDGE ( 'NONE', *, *, #126, .T. ) ;
#53 = ORIENTED_EDGE ( 'NONE', *, *, #127, .F. ) ;
#54 = ADVANCED_FACE ( 'NONE', ( #143 ), #176, .T. ) ;
#55 = ORIENTED_EDGE ( 'NONE', *, *, #65, .F. ) ;
#56 = VERTEX_POINT ( 'NONE', #177 ) ;
#57 = EDGE_CURVE ( 'NONE', #56, #83, #242, .T. ) ;
#58 = ADVANCED_FACE ( 'NONE', ( #185 ), #244, .T. ) ;
#59 = VERTEX_POINT ( 'NONE', #206 ) ;
#60 = EDGE_LOOP ( 'NONE', ( #124, #36, #37, #82 ) ) ;
#61 = MECHANICAL_DESIGN_GEOMETRIC_PRESENTATION_REPRESENTATION (  '', ( #27 ), #358 ) ;
#62 = FACE_OUTER_BOUND ( 'NONE', #73, .T. ) ;
#63 =( GEOMETRIC_REPRESENTATION_CONTEXT ( 3 ) GLOBAL_UNCERTAINTY_ASSIGNED_CONTEXT ( ( #116 ) ) GLOBAL_UNIT_ASSIGNED_CONTEXT ( ( #373, #372, #371 ) ) REPRESENTATION_CONTEXT ( 'NONE', 'WORKASPACE' ) );
#64 = ORIENTED_EDGE ( 'NONE', *, *, #57, .T. ) ;
#65 = EDGE_CURVE ( 'NONE', #83, #74, #196, .T. ) ;
#66 = VERTEX_POINT ( 'NONE', #174 ) ;
#67 = COLOUR_RGB ( '',1.000000000000000000, 1.000000000000000000, 1.000000000000000000 ) ;
#68 = ORIENTED_EDGE ( 'NONE', *, *, #94, .F. ) ;
#69 = ORIENTED_EDGE ( 'NONE', *, *, #120, .F. ) ;
#70 = VERTEX_POINT ( 'NONE', #198 ) ;
#71 = EDGE_CURVE ( 'NONE', #70, #93, #210, .T. ) ;
#72 = ORIENTED_EDGE ( 'NONE', *, *, #129, .T. ) ;
#73 = EDGE_LOOP ( 'NONE', ( #53, #99, #98, #128 ) ) ;
#74 = VERTEX_POINT ( 'NONE', #197 ) ;
#75 = EDGE_CURVE ( 'NONE', #66, #74, #186, .T. ) ;
#76 = EDGE_LOOP ( 'NONE', ( #87, #123, #72, #46 ) ) ;
#77 = EDGE_CURVE ( 'NONE', #83, #59, #213, .T. ) ;
#78 = EDGE_CURVE ( 'NONE', #56, #66, #232, .T. ) ;
#79 = ORIENTED_EDGE ( 'NONE', *, *, #77, .F. ) ;
#80 = ORIENTED_EDGE ( 'NONE', *, *, #97, .F. ) ;
#81 = EDGE_LOOP ( 'NONE', ( #69, #80 ) ) ;
#82 = ORIENTED_EDGE ( 'NONE', *, *, #100, .T. ) ;
#83 = VERTEX_POINT ( 'NONE', #187 ) ;
#84 = ORIENTED_EDGE ( 'NONE', *, *, #94, .T. ) ;
#85 = EDGE_CURVE ( 'NONE', #56, #59, #190, .T. ) ;
#86 = ORIENTED_EDGE ( 'NONE', *, *, #77, .T. ) ;
#87 = ORIENTED_EDGE ( 'NONE', *, *, #126, .F. ) ;
#88 = ORIENTED_EDGE ( 'NONE', *, *, #78, .T. ) ;
#89 = ADVANCED_FACE ( 'NONE', ( #221 ), #262, .T. ) ;
#90 = EDGE_LOOP ( 'NONE', ( #84, #91, #125, #39 ) ) ;
#91 = ORIENTED_EDGE ( 'NONE', *, *, #127, .T. ) ;
#92 = ORIENTED_EDGE ( 'NONE', *, *, #57, .F. ) ;
#93 = VERTEX_POINT ( 'NONE', #270 ) ;
#94 = EDGE_CURVE ( 'NONE', #93, #70, #256, .T. ) ;
#95 = EDGE_CURVE ( 'NONE', #93, #66, #156, .T. ) ;
#96 = ADVANCED_FACE ( 'NONE', ( #255 ), #269, .F. ) ;
#97 = EDGE_CURVE ( 'NONE', #117, #118, #295, .T. ) ;
#98 = ORIENTED_EDGE ( 'NONE', *, *, #95, .T. ) ;
#99 = ORIENTED_EDGE ( 'NONE', *, *, #71, .T. ) ;
#100 = EDGE_CURVE ( 'NONE', #74, #66, #333, .T. ) ;
#101 = ADVANCED_FACE ( 'NONE', ( #347 ), #343, .T. ) ;
#102 = EDGE_LOOP ( 'NONE', ( #92, #88, #50, #55 ) ) ;
#103 = CLOSED_SHELL ( 'NONE', ( #89, #54, #51, #104, #101, #96, #58, #35, #122 ) ) ;
#104 = ADVANCED_FACE ( 'NONE', ( #339 ), #318, .T. ) ;
#105 = ORIENTED_EDGE ( 'NONE', *, *, #85, .F. ) ;
#106 = EDGE_LOOP ( 'NONE', ( #64, #86, #105 ) ) ;
#107 =( NAMED_UNIT ( * ) PLANE_ANGLE_UNIT ( ) SI_UNIT ( $, .RADIAN. ) );
#108 =( LENGTH_UNIT ( ) NAMED_UNIT ( * ) SI_UNIT ( .MILLI., .METRE. ) );
#109 = MECHANICAL_DESIGN_GEOMETRIC_PRESENTATION_REPRESENTATION (  '', ( #111 ), #41 ) ;
#110 = PRESENTATION_LAYER_ASSIGNMENT (  '', '', ( #111 ) ) ;
#111 = STYLED_ITEM ( 'NONE', ( #112 ), #35 ) ;
#112 = PRESENTATION_STYLE_ASSIGNMENT (( #113 ) ) ;
#113 = SURFACE_STYLE_USAGE ( .BOTH. , #114 ) ;
#114 = SURFACE_SIDE_STYLE ('',( #115 ) ) ;
#115 = SURFACE_STYLE_FILL_AREA ( #48 ) ;
#116 = UNCERTAINTY_MEASURE_WITH_UNIT (LENGTH_MEASURE( 1.000000000000000100E-005 ), #373, 'distance_accuracy_value', 'NONE');
#117 = VERTEX_POINT ( 'NONE', #335 ) ;
#118 = VERTEX_POINT ( 'NONE', #300 ) ;
#119 = ORIENTED_EDGE ( 'NONE', *, *, #85, .T. ) ;
#120 = EDGE_CURVE ( 'NONE', #118, #117, #328, .T. ) ;
#121 = EDGE_CURVE ( 'NONE', #83, #56, #158, .T. ) ;
#122 = ADVANCED_FACE ( 'NONE', ( #311 ), #354, .T. ) ;
#123 = ORIENTED_EDGE ( 'NONE', *, *, #97, .T. ) ;
#124 = ORIENTED_EDGE ( 'NONE', *, *, #78, .F. ) ;
#125 = ORIENTED_EDGE ( 'NONE', *, *, #75, .F. ) ;
#126 = EDGE_CURVE ( 'NONE', #117, #70, #356, .T. ) ;
#127 = EDGE_CURVE ( 'NONE', #70, #74, #364, .T. ) ;
#128 = ORIENTED_EDGE ( 'NONE', *, *, #100, .F. ) ;
#129 = EDGE_CURVE ( 'NONE', #118, #93, #349, .T. ) ;
#130 = ORIENTED_EDGE ( 'NONE', *, *, #121, .T. ) ;
#131 = ORIENTED_EDGE ( 'NONE', *, *, #129, .F. ) ;
#132 =( LENGTH_UNIT ( ) NAMED_UNIT ( * ) SI_UNIT ( .MILLI., .METRE. ) );
#133 = MECHANICAL_DESIGN_GEOMETRIC_PRESENTATION_REPRESENTATION (  '', ( #135 ), #175 ) ;
#134 = PRESENTATION_LAYER_ASSIGNMENT (  '', '', ( #135 ) ) ;
#135 = STYLED_ITEM ( 'NONE', ( #136 ), #58 ) ;
#136 = PRESENTATION_STYLE_ASSIGNMENT (( #137 ) ) ;
#137 = SURFACE_STYLE_USAGE ( .BOTH. , #138 ) ;
#138 = SURFACE_SIDE_STYLE ('',( #203 ) ) ;
#139 = UNCERTAINTY_MEASURE_WITH_UNIT (LENGTH_MEASURE( 1.000000000000000100E-005 ), #220, 'distance_accuracy_value', 'NONE');
#140 = MECHANICAL_DESIGN_GEOMETRIC_PRESENTATION_REPRESENTATION (  '', ( #277 ), #162 ) ;
#141 = AXIS2_PLACEMENT_3D ( 'NONE', #246, #245, #161 ) ;
#142 = FILL_AREA_STYLE_COLOUR ( '', #179 ) ;
#143 = FACE_OUTER_BOUND ( 'NONE', #90, .T. ) ;
#144 =( NAMED_UNIT ( * ) PLANE_ANGLE_UNIT ( ) SI_UNIT ( $, .RADIAN. ) );
#145 =( LENGTH_UNIT ( ) NAMED_UNIT ( * ) SI_UNIT ( .MILLI., .METRE. ) );
#146 = MECHANICAL_DESIGN_GEOMETRIC_PRESENTATION_REPRESENTATION (  '', ( #148 ), #23 ) ;
#147 = PRESENTATION_LAYER_ASSIGNMENT (  '', '', ( #148 ) ) ;
#148 = STYLED_ITEM ( 'NONE', ( #149 ), #96 ) ;
#149 = PRESENTATION_STYLE_ASSIGNMENT (( #150 ) ) ;
#150 = SURFACE_STYLE_USAGE ( .BOTH. , #151 ) ;
#151 = SURFACE_SIDE_STYLE ('',( #152 ) ) ;
#152 = SURFACE_STYLE_FILL_AREA ( #153 ) ;
#153 = FILL_AREA_STYLE ('',( #268 ) ) ;
#154 = DIRECTION ( 'NONE',  ( -0.0000000000000000000, -0.0000000000000000000, 1.000000000000000000 ) ) ;
#155 = VECTOR ( 'NONE', #154, 1000.000000000000000 ) ;
#156 = LINE ( 'NONE', #266, #155 ) ;
#157 = AXIS2_PLACEMENT_3D ( 'NONE', #7, #6, #8 ) ;
#158 = CIRCLE ( 'NONE', #157, 12.55857864376269000 ) ;
#159 = DIRECTION ( 'NONE',  ( 1.000000000000000000, 0.0000000000000000000, 0.0000000000000000000 ) ) ;
#160 =( NAMED_UNIT ( * ) SI_UNIT ( $, .STERADIAN. ) SOLID_ANGLE_UNIT ( ) );
#161 = DIRECTION ( 'NONE',  ( 1.000000000000000000, 0.0000000000000000000, 0.0000000000000000000 ) ) ;
#162 =( GEOMETRIC_REPRESENTATION_CONTEXT ( 3 ) GLOBAL_UNCERTAINTY_ASSIGNED_CONTEXT ( ( #181 ) ) GLOBAL_UNIT_ASSIGNED_CONTEXT ( ( #275, #180, #182 ) ) REPRESENTATION_CONTEXT ( 'NONE', 'WORKASPACE' ) );
#163 = SURFACE_STYLE_USAGE ( .BOTH. , #208 ) ;
#164 = AXIS2_PLACEMENT_3D ( 'NONE', #169, #205, #171 ) ;
#165 = DIRECTION ( 'NONE',  ( 1.000000000000000000, 0.0000000000000000000, 0.0000000000000000000 ) ) ;
#166 = DIRECTION ( 'NONE',  ( -0.0000000000000000000, -0.0000000000000000000, 1.000000000000000000 ) ) ;
#167 = CARTESIAN_POINT ( 'NONE',  ( 0.0000000000000000000, 0.0000000000000000000, 0.5349066100367782000 ) ) ;
#168 = AXIS2_PLACEMENT_3D ( 'NONE', #167, #166, #165 ) ;
#169 = CARTESIAN_POINT ( 'NONE',  ( 0.0000000000000000000, 0.0000000000000000000, -1.465093389963222100 ) ) ;
#170 = AXIS2_PLACEMENT_3D ( 'NONE', #223, #192, #191 ) ;
#171 = DIRECTION ( 'NONE',  ( 1.000000000000000000, 0.0000000000000000000, 0.0000000000000000000 ) ) ;
#172 = CONICAL_SURFACE ( 'NONE', #237, 12.55857864376269000, 0.7853981633974482800 ) ;
#173 = AXIS2_PLACEMENT_3D ( 'NONE', #226, #225, #224 ) ;
#174 = CARTESIAN_POINT ( 'NONE',  ( 12.69999999999999900, 0.0000000000000000000, 0.3934852537994680300 ) ) ;
#175 =( GEOMETRIC_REPRESENTATION_CONTEXT ( 3 ) GLOBAL_UNCERTAINTY_ASSIGNED_CONTEXT ( ( #214 ) ) GLOBAL_UNIT_ASSIGNED_CONTEXT ( ( #132, #209, #215 ) ) REPRESENTATION_CONTEXT ( 'NONE', 'WORKASPACE' ) );
#176 = CYLINDRICAL_SURFACE ( 'NONE', #141, 12.69999999999999900 ) ;
#177 = CARTESIAN_POINT ( 'NONE',  ( 12.55857864376269000, 0.0000000000000000000, 0.5349066100367685400 ) ) ;
#178 =( NAMED_UNIT ( * ) PLANE_ANGLE_UNIT ( ) SI_UNIT ( $, .RADIAN. ) );
#179 = COLOUR_RGB ( '',1.000000000000000000, 1.000000000000000000, 1.000000000000000000 ) ;
#180 =( NAMED_UNIT ( * ) PLANE_ANGLE_UNIT ( ) SI_UNIT ( $, .RADIAN. ) );
#181 = UNCERTAINTY_MEASURE_WITH_UNIT (LENGTH_MEASURE( 1.000000000000000100E-005 ), #275, 'distance_accuracy_value', 'NONE');
#182 =( NAMED_UNIT ( * ) SI_UNIT ( $, .STERADIAN. ) SOLID_ANGLE_UNIT ( ) );
#183 = DIRECTION ( 'NONE',  ( -0.0000000000000000000, -0.0000000000000000000, 1.000000000000000000 ) ) ;
#184 = CARTESIAN_POINT ( 'NONE',  ( 0.0000000000000000000, 0.0000000000000000000, -1.465093389963222100 ) ) ;
#185 = FACE_OUTER_BOUND ( 'NONE', #76, .T. ) ;
#186 = CIRCLE ( 'NONE', #170, 12.69999999999999900 ) ;
#187 = CARTESIAN_POINT ( 'NONE',  ( -12.55857864376269000, 1.537982313792428500E-015, 0.5349066100367685400 ) ) ;
#188 = SURFACE_SIDE_STYLE ('',( #189 ) ) ;
#189 = SURFACE_STYLE_FILL_AREA ( #228 ) ;
#190 = CIRCLE ( 'NONE', #260, 91.99999999999998600 ) ;
#191 = DIRECTION ( 'NONE',  ( 1.000000000000000000, 0.0000000000000000000, 0.0000000000000000000 ) ) ;
#192 = DIRECTION ( 'NONE',  ( -0.0000000000000000000, -0.0000000000000000000, 1.000000000000000000 ) ) ;
#193 = DIRECTION ( 'NONE',  ( -0.7071067811865463500, 0.0000000000000000000, -0.7071067811865487900 ) ) ;
#194 = VECTOR ( 'NONE', #193, 999.9999999999998900 ) ;
#195 = CARTESIAN_POINT ( 'NONE',  ( -12.69999999999999900, 0.0000000000000000000, 0.3934852537994680300 ) ) ;
#196 = LINE ( 'NONE', #195, #194 ) ;
#197 = CARTESIAN_POINT ( 'NONE',  ( -12.69999999999999900, 1.555301434917138400E-015, 0.3934852537994680300 ) ) ;
#198 = CARTESIAN_POINT ( 'NONE',  ( -12.69999999999999900, 1.555301434917138400E-015, -1.323672033725912500 ) ) ;
#199 = COLOUR_RGB ( '',1.000000000000000000, 1.000000000000000000, 1.000000000000000000 ) ;
#200 = SURFACE_SIDE_STYLE ('',( #280 ) ) ;
#201 = FILL_AREA_STYLE ('',( #142 ) ) ;
#202 = DIRECTION ( 'NONE',  ( 1.000000000000000000, 0.0000000000000000000, 0.0000000000000000000 ) ) ;
#203 = SURFACE_STYLE_FILL_AREA ( #241 ) ;
#204 = COLOUR_RGB ( '',1.000000000000000000, 1.000000000000000000, 1.000000000000000000 ) ;
#205 = DIRECTION ( 'NONE',  ( -0.0000000000000000000, -0.0000000000000000000, 1.000000000000000000 ) ) ;
#206 = CARTESIAN_POINT ( 'NONE',  ( 0.0000000000000000000, 0.0000000000000000000, 1.464906610036777400 ) ) ;
#207 = FACE_OUTER_BOUND ( 'NONE', #45, .T. ) ;
#208 = SURFACE_SIDE_STYLE ('',( #218 ) ) ;
#209 =( NAMED_UNIT ( * ) PLANE_ANGLE_UNIT ( ) SI_UNIT ( $, .RADIAN. ) );
#210 = CIRCLE ( 'NONE', #173, 12.69999999999999900 ) ;
#211 = CARTESIAN_POINT ( 'NONE',  ( 0.4990487068138646000, -6.111584014182251500E-017, -90.53373984950754000 ) ) ;
#212 = AXIS2_PLACEMENT_3D ( 'NONE', #211, #236, #235 ) ;
#213 = CIRCLE ( 'NONE', #212, 91.99999999999998600 ) ;
#214 = UNCERTAINTY_MEASURE_WITH_UNIT (LENGTH_MEASURE( 1.000000000000000100E-005 ), #132, 'distance_accuracy_value', 'NONE');
#215 =( NAMED_UNIT ( * ) SI_UNIT ( $, .STERADIAN. ) SOLID_ANGLE_UNIT ( ) );
#216 =( GEOMETRIC_REPRESENTATION_CONTEXT ( 3 ) GLOBAL_UNCERTAINTY_ASSIGNED_CONTEXT ( ( #139 ) ) GLOBAL_UNIT_ASSIGNED_CONTEXT ( ( #220, #178, #160 ) ) REPRESENTATION_CONTEXT ( 'NONE', 'WORKASPACE' ) );
#217 = FILL_AREA_STYLE_COLOUR ( '', #199 ) ;
#218 = SURFACE_STYLE_FILL_AREA ( #219 ) ;
#219 = FILL_AREA_STYLE ('',( #217 ) ) ;
#220 =( LENGTH_UNIT ( ) NAMED_UNIT ( * ) SI_UNIT ( .MILLI., .METRE. ) );
#221 = FACE_OUTER_BOUND ( 'NONE', #102, .T. ) ;
#222 = COLOUR_RGB ( '',1.000000000000000000, 1.000000000000000000, 1.000000000000000000 ) ;
#223 = CARTESIAN_POINT ( 'NONE',  ( 0.0000000000000000000, 0.0000000000000000000, 0.3934852537994680300 ) ) ;
#224 = DIRECTION ( 'NONE',  ( 1.000000000000000000, 0.0000000000000000000, 0.0000000000000000000 ) ) ;
#225 = DIRECTION ( 'NONE',  ( -0.0000000000000000000, -0.0000000000000000000, 1.000000000000000000 ) ) ;
#226 = CARTESIAN_POINT ( 'NONE',  ( 0.0000000000000000000, 0.0000000000000000000, -1.323672033725912500 ) ) ;
#227 = AXIS2_PLACEMENT_3D ( 'NONE', #267, #263, #159 ) ;
#228 = FILL_AREA_STYLE ('',( #261 ) ) ;
#229 = DIRECTION ( 'NONE',  ( 0.7071067811865463500, 8.659560562354919300E-017, -0.7071067811865487900 ) ) ;
#230 = VECTOR ( 'NONE', #229, 999.9999999999998900 ) ;
#231 = CARTESIAN_POINT ( 'NONE',  ( 12.69999999999999900, 1.555301434917138400E-015, 0.3934852537994680300 ) ) ;
#232 = LINE ( 'NONE', #231, #230 ) ;
#233 = AXIS2_PLACEMENT_3D ( 'NONE', #254, #273, #274 ) ;
#234 = DIRECTION ( 'NONE',  ( -0.0000000000000000000, -0.0000000000000000000, 1.000000000000000000 ) ) ;
#235 = DIRECTION ( 'NONE',  ( -1.000000000000000000, 1.224646799147353200E-016, 0.0000000000000000000 ) ) ;
#236 = DIRECTION ( 'NONE',  ( 1.224646799147353200E-016, 1.000000000000000000, 0.0000000000000000000 ) ) ;
#237 = AXIS2_PLACEMENT_3D ( 'NONE', #184, #183, #202 ) ;
#238 = PRESENTATION_LAYER_ASSIGNMENT (  '', '', ( #239 ) ) ;
#239 = STYLED_ITEM ( 'NONE', ( #281 ), #51 ) ;
#240 = MECHANICAL_DESIGN_GEOMETRIC_PRESENTATION_REPRESENTATION (  '', ( #239 ), #216 ) ;
#241 = FILL_AREA_STYLE ('',( #243 ) ) ;
#242 = CIRCLE ( 'NONE', #168, 12.55857864376269000 ) ;
#243 = FILL_AREA_STYLE_COLOUR ( '', #204 ) ;
#244 = CONICAL_SURFACE ( 'NONE', #164, 12.55857864376269000, 0.7853981633974482800 ) ;
#245 = DIRECTION ( 'NONE',  ( -0.0000000000000000000, -0.0000000000000000000, 1.000000000000000000 ) ) ;
#246 = CARTESIAN_POINT ( 'NONE',  ( 0.0000000000000000000, 0.0000000000000000000, 1.464906610036777400 ) ) ;
#247 =( NAMED_UNIT ( * ) PLANE_ANGLE_UNIT ( ) SI_UNIT ( $, .RADIAN. ) );
#248 =( LENGTH_UNIT ( ) NAMED_UNIT ( * ) SI_UNIT ( .MILLI., .METRE. ) );
#249 = MECHANICAL_DESIGN_GEOMETRIC_PRESENTATION_REPRESENTATION (  '', ( #251 ), #282 ) ;
#250 = PRESENTATION_LAYER_ASSIGNMENT (  '', '', ( #251 ) ) ;
#251 = STYLED_ITEM ( 'NONE', ( #252 ), #89 ) ;
#252 = PRESENTATION_STYLE_ASSIGNMENT (( #253 ) ) ;
#253 = SURFACE_STYLE_USAGE ( .BOTH. , #188 ) ;
#254 = CARTESIAN_POINT ( 'NONE',  ( 0.0000000000000000000, 0.0000000000000000000, 0.3934852537994680300 ) ) ;
#255 = FACE_OUTER_BOUND ( 'NONE', #81, .T. ) ;
#256 = CIRCLE ( 'NONE', #265, 12.69999999999999900 ) ;
#257 = DIRECTION ( 'NONE',  ( 0.0000000000000000000, 0.0000000000000000000, -1.000000000000000000 ) ) ;
#258 = DIRECTION ( 'NONE',  ( 0.0000000000000000000, -1.000000000000000000, 0.0000000000000000000 ) ) ;
#259 = CARTESIAN_POINT ( 'NONE',  ( -0.4990487068138646000, 0.0000000000000000000, -90.53373984950754000 ) ) ;
#260 = AXIS2_PLACEMENT_3D ( 'NONE', #259, #258, #257 ) ;
#261 = FILL_AREA_STYLE_COLOUR ( '', #222 ) ;
#262 = CONICAL_SURFACE ( 'NONE', #233, 12.69999999999999900, 0.7853981633974466100 ) ;
#263 = DIRECTION ( 'NONE',  ( 0.0000000000000000000, -0.0000000000000000000, 1.000000000000000000 ) ) ;
#264 = DIRECTION ( 'NONE',  ( 1.000000000000000000, 0.0000000000000000000, 0.0000000000000000000 ) ) ;
#265 = AXIS2_PLACEMENT_3D ( 'NONE', #271, #234, #264 ) ;
#266 = CARTESIAN_POINT ( 'NONE',  ( 12.69999999999999900, 0.0000000000000000000, 1.464906610036777400 ) ) ;
#267 = CARTESIAN_POINT ( 'NONE',  ( 0.0000000000000000000, 0.0000000000000000000, -1.465093389963222600 ) ) ;
#268 = FILL_AREA_STYLE_COLOUR ( '', #272 ) ;
#269 = PLANE ( 'NONE',  #227 ) ;
#270 = CARTESIAN_POINT ( 'NONE',  ( 12.69999999999999900, 0.0000000000000000000, -1.323672033725912500 ) ) ;
#271 = CARTESIAN_POINT ( 'NONE',  ( 0.0000000000000000000, 0.0000000000000000000, -1.323672033725912500 ) ) ;
#272 = COLOUR_RGB ( '',1.000000000000000000, 1.000000000000000000, 1.000000000000000000 ) ;
#273 = DIRECTION ( 'NONE',  ( 0.0000000000000000000, 0.0000000000000000000, -1.000000000000000000 ) ) ;
#274 = DIRECTION ( 'NONE',  ( -1.000000000000000000, 0.0000000000000000000, 0.0000000000000000000 ) ) ;
#275 =( LENGTH_UNIT ( ) NAMED_UNIT ( * ) SI_UNIT ( .MILLI., .METRE. ) );
#276 = PRESENTATION_LAYER_ASSIGNMENT (  '', '', ( #277 ) ) ;
#277 = STYLED_ITEM ( 'NONE', ( #278 ), #54 ) ;
#278 = PRESENTATION_STYLE_ASSIGNMENT (( #279 ) ) ;
#279 = SURFACE_STYLE_USAGE ( .BOTH. , #200 ) ;
#280 = SURFACE_STYLE_FILL_AREA ( #201 ) ;
#281 = PRESENTATION_STYLE_ASSIGNMENT (( #163 ) ) ;
#282 =( GEOMETRIC_REPRESENTATION_CONTEXT ( 3 ) GLOBAL_UNCERTAINTY_ASSIGNED_CONTEXT ( ( #283 ) ) GLOBAL_UNIT_ASSIGNED_CONTEXT ( ( #248, #247, #284 ) ) REPRESENTATION_CONTEXT ( 'NONE', 'WORKASPACE' ) );
#283 = UNCERTAINTY_MEASURE_WITH_UNIT (LENGTH_MEASURE( 1.000000000000000100E-005 ), #248, 'distance_accuracy_value', 'NONE');
#284 =( NAMED_UNIT ( * ) SI_UNIT ( $, .STERADIAN. ) SOLID_ANGLE_UNIT ( ) );
#285 = CARTESIAN_POINT ( 'NONE',  ( 0.0000000000000000000, 0.0000000000000000000, 0.3934852537994680300 ) ) ;
#286 = AXIS2_PLACEMENT_3D ( 'NONE', #285, #336, #294 ) ;
#287 = MECHANICAL_DESIGN_GEOMETRIC_PRESENTATION_REPRESENTATION (  '', ( #289 ), #293 ) ;
#288 = PRESENTATION_LAYER_ASSIGNMENT (  '', '', ( #289 ) ) ;
#289 = STYLED_ITEM ( 'NONE', ( #341 ), #101 ) ;
#290 = DIRECTION ( 'NONE',  ( -0.0000000000000000000, -0.0000000000000000000, 1.000000000000000000 ) ) ;
#291 = AXIS2_PLACEMENT_3D ( 'NONE', #319, #348, #301 ) ;
#292 = DIRECTION ( 'NONE',  ( 1.000000000000000000, 0.0000000000000000000, 0.0000000000000000000 ) ) ;
#293 =( GEOMETRIC_REPRESENTATION_CONTEXT ( 3 ) GLOBAL_UNCERTAINTY_ASSIGNED_CONTEXT ( ( #296 ) ) GLOBAL_UNIT_ASSIGNED_CONTEXT ( ( #340, #350, #313 ) ) REPRESENTATION_CONTEXT ( 'NONE', 'WORKASPACE' ) );
#294 = DIRECTION ( 'NONE',  ( 1.000000000000000000, 0.0000000000000000000, 0.0000000000000000000 ) ) ;
#295 = CIRCLE ( 'NONE', #342, 12.55857864376269000 ) ;
#296 = UNCERTAINTY_MEASURE_WITH_UNIT (LENGTH_MEASURE( 1.000000000000000100E-005 ), #340, 'distance_accuracy_value', 'NONE');
#297 = UNCERTAINTY_MEASURE_WITH_UNIT (LENGTH_MEASURE( 1.000000000000000100E-005 ), #304, 'distance_accuracy_value', 'NONE');
#298 =( NAMED_UNIT ( * ) SI_UNIT ( $, .STERADIAN. ) SOLID_ANGLE_UNIT ( ) );
#299 = ADVANCED_BREP_SHAPE_REPRESENTATION ( '24987-E0W', ( #44, #400 ), #63 ) ;
#300 = CARTESIAN_POINT ( 'NONE',  ( 12.55857864376269000, 0.0000000000000000000, -1.465093389963222100 ) ) ;
#301 = DIRECTION ( 'NONE',  ( 1.000000000000000000, 0.0000000000000000000, 0.0000000000000000000 ) ) ;
#302 =( GEOMETRIC_REPRESENTATION_CONTEXT ( 3 ) GLOBAL_UNCERTAINTY_ASSIGNED_CONTEXT ( ( #297 ) ) GLOBAL_UNIT_ASSIGNED_CONTEXT ( ( #304, #315, #298 ) ) REPRESENTATION_CONTEXT ( 'NONE', 'WORKASPACE' ) );
#303 = CARTESIAN_POINT ( 'NONE',  ( 0.0000000000000000000, 0.0000000000000000000, -90.53373984950754000 ) ) ;
#304 =( LENGTH_UNIT ( ) NAMED_UNIT ( * ) SI_UNIT ( .MILLI., .METRE. ) );
#305 = MECHANICAL_DESIGN_GEOMETRIC_PRESENTATION_REPRESENTATION (  '', ( #307 ), #302 ) ;
#306 = PRESENTATION_LAYER_ASSIGNMENT (  '', '', ( #307 ) ) ;
#307 = STYLED_ITEM ( 'NONE', ( #308 ), #104 ) ;
#308 = PRESENTATION_STYLE_ASSIGNMENT (( #309 ) ) ;
#309 = SURFACE_STYLE_USAGE ( .BOTH. , #310 ) ;
#310 = SURFACE_SIDE_STYLE ('',( #337 ) ) ;
#311 = FACE_OUTER_BOUND ( 'NONE', #60, .T. ) ;
#312 = AXIS2_PLACEMENT_3D ( 'NONE', #303, #290, #292 ) ;
#313 =( NAMED_UNIT ( * ) SI_UNIT ( $, .STERADIAN. ) SOLID_ANGLE_UNIT ( ) );
#314 = COLOUR_RGB ( '',1.000000000000000000, 1.000000000000000000, 1.000000000000000000 ) ;
#315 =( NAMED_UNIT ( * ) PLANE_ANGLE_UNIT ( ) SI_UNIT ( $, .RADIAN. ) );
#316 = SURFACE_STYLE_FILL_AREA ( #351 ) ;
#317 = DIRECTION ( 'NONE',  ( -0.0000000000000000000, -0.0000000000000000000, 1.000000000000000000 ) ) ;
#318 = TOROIDAL_SURFACE ( 'NONE', #291, -0.4990487068138646000, 91.99999999999998600 ) ;
#319 = CARTESIAN_POINT ( 'NONE',  ( 0.0000000000000000000, 0.0000000000000000000, -90.53373984950754000 ) ) ;
#320 = DIRECTION ( 'NONE',  ( 1.000000000000000000, 0.0000000000000000000, 0.0000000000000000000 ) ) ;
#321 = SURFACE_STYLE_USAGE ( .BOTH. , #322 ) ;
#322 = SURFACE_SIDE_STYLE ('',( #316 ) ) ;
#323 = FILL_AREA_STYLE_COLOUR ( '', #314 ) ;
#324 = DIRECTION ( 'NONE',  ( 1.000000000000000000, 0.0000000000000000000, 0.0000000000000000000 ) ) ;
#325 = DIRECTION ( 'NONE',  ( -0.0000000000000000000, -0.0000000000000000000, 1.000000000000000000 ) ) ;
#326 = CARTESIAN_POINT ( 'NONE',  ( 0.0000000000000000000, 0.0000000000000000000, -1.465093389963222100 ) ) ;
#327 = AXIS2_PLACEMENT_3D ( 'NONE', #326, #325, #324 ) ;
#328 = CIRCLE ( 'NONE', #327, 12.55857864376269000 ) ;
#329 = FILL_AREA_STYLE_COLOUR ( '', #331 ) ;
#330 = DIRECTION ( 'NONE',  ( 0.7071067811865474600, 0.0000000000000000000, 0.7071067811865475700 ) ) ;
#331 = COLOUR_RGB ( '',1.000000000000000000, 1.000000000000000000, 1.000000000000000000 ) ;
#332 = CARTESIAN_POINT ( 'NONE',  ( 12.55857864376269000, 0.0000000000000000000, -1.465093389963222100 ) ) ;
#333 = CIRCLE ( 'NONE', #286, 12.69999999999999900 ) ;
#334 = CARTESIAN_POINT ( 'NONE',  ( 0.0000000000000000000, 0.0000000000000000000, -1.465093389963222100 ) ) ;
#335 = CARTESIAN_POINT ( 'NONE',  ( -12.55857864376269000, 1.546641874354783400E-015, -1.465093389963222100 ) ) ;
#336 = DIRECTION ( 'NONE',  ( -0.0000000000000000000, -0.0000000000000000000, 1.000000000000000000 ) ) ;
#337 = SURFACE_STYLE_FILL_AREA ( #338 ) ;
#338 = FILL_AREA_STYLE ('',( #344 ) ) ;
#339 = FACE_OUTER_BOUND ( 'NONE', #106, .T. ) ;
#340 =( LENGTH_UNIT ( ) NAMED_UNIT ( * ) SI_UNIT ( .MILLI., .METRE. ) );
#341 = PRESENTATION_STYLE_ASSIGNMENT (( #321 ) ) ;
#342 = AXIS2_PLACEMENT_3D ( 'NONE', #334, #317, #320 ) ;
#343 = TOROIDAL_SURFACE ( 'NONE', #312, -0.4990487068138646000, 91.99999999999998600 ) ;
#344 = FILL_AREA_STYLE_COLOUR ( '', #346 ) ;
#345 = VECTOR ( 'NONE', #330, 1000.000000000000000 ) ;
#346 = COLOUR_RGB ( '',1.000000000000000000, 1.000000000000000000, 1.000000000000000000 ) ;
#347 = FACE_OUTER_BOUND ( 'NONE', #47, .T. ) ;
#348 = DIRECTION ( 'NONE',  ( -0.0000000000000000000, -0.0000000000000000000, 1.000000000000000000 ) ) ;
#349 = LINE ( 'NONE', #332, #345 ) ;
#350 =( NAMED_UNIT ( * ) PLANE_ANGLE_UNIT ( ) SI_UNIT ( $, .RADIAN. ) );
#351 = FILL_AREA_STYLE ('',( #323 ) ) ;
#352 =( NAMED_UNIT ( * ) PLANE_ANGLE_UNIT ( ) SI_UNIT ( $, .RADIAN. ) );
#353 = DIRECTION ( 'NONE',  ( -0.7071067811865474600, 8.659560562354931600E-017, 0.7071067811865475700 ) ) ;
#354 = CONICAL_SURFACE ( 'NONE', #369, 12.69999999999999900, 0.7853981633974466100 ) ;
#355 = VECTOR ( 'NONE', #353, 1000.000000000000000 ) ;
#356 = LINE ( 'NONE', #370, #355 ) ;
#357 = DIRECTION ( 'NONE',  ( -1.000000000000000000, 0.0000000000000000000, 0.0000000000000000000 ) ) ;
#358 =( GEOMETRIC_REPRESENTATION_CONTEXT ( 3 ) GLOBAL_UNCERTAINTY_ASSIGNED_CONTEXT ( ( #359 ) ) GLOBAL_UNIT_ASSIGNED_CONTEXT ( ( #40, #352, #360 ) ) REPRESENTATION_CONTEXT ( 'NONE', 'WORKASPACE' ) );
#359 = UNCERTAINTY_MEASURE_WITH_UNIT (LENGTH_MEASURE( 1.000000000000000100E-005 ), #40, 'distance_accuracy_value', 'NONE');
#360 =( NAMED_UNIT ( * ) SI_UNIT ( $, .STERADIAN. ) SOLID_ANGLE_UNIT ( ) );
#361 = DIRECTION ( 'NONE',  ( 0.0000000000000000000, 0.0000000000000000000, -1.000000000000000000 ) ) ;
#362 = DIRECTION ( 'NONE',  ( -0.0000000000000000000, -0.0000000000000000000, 1.000000000000000000 ) ) ;
#363 = VECTOR ( 'NONE', #362, 1000.000000000000000 ) ;
#364 = LINE ( 'NONE', #368, #363 ) ;
#365 =( LENGTH_UNIT ( ) NAMED_UNIT ( * ) SI_UNIT ( .MILLI., .METRE. ) );
#366 = CARTESIAN_POINT ( 'NONE',  ( 0.0000000000000000000, 0.0000000000000000000, 0.3934852537994680300 ) ) ;
#367 =( NAMED_UNIT ( * ) PLANE_ANGLE_UNIT ( ) SI_UNIT ( $, .RADIAN. ) );
#368 = CARTESIAN_POINT ( 'NONE',  ( -12.69999999999999900, 1.555301434917138400E-015, 1.464906610036777400 ) ) ;
#369 = AXIS2_PLACEMENT_3D ( 'NONE', #366, #361, #357 ) ;
#370 = CARTESIAN_POINT ( 'NONE',  ( -12.55857864376269000, 1.537982313792428700E-015, -1.465093389963222100 ) ) ;
#371 =( NAMED_UNIT ( * ) SI_UNIT ( $, .STERADIAN. ) SOLID_ANGLE_UNIT ( ) );
#372 =( NAMED_UNIT ( * ) PLANE_ANGLE_UNIT ( ) SI_UNIT ( $, .RADIAN. ) );
#373 =( LENGTH_UNIT ( ) NAMED_UNIT ( * ) SI_UNIT ( .MILLI., .METRE. ) );
#374 = SURFACE_STYLE_FILL_AREA ( #376 ) ;
#375 = MECHANICAL_DESIGN_GEOMETRIC_PRESENTATION_REPRESENTATION (  '', ( #383 ), #384 ) ;
#376 = FILL_AREA_STYLE ('',( #378 ) ) ;
#377 = PRESENTATION_LAYER_ASSIGNMENT (  '', '', ( #383 ) ) ;
#378 = FILL_AREA_STYLE_COLOUR ( '', #379 ) ;
#379 = COLOUR_RGB ( '',0.7960784313725489700, 0.8235294117647058400, 0.9372549019607843100 ) ;
#380 = SURFACE_STYLE_USAGE ( .BOTH. , #382 ) ;
#381 = PRESENTATION_STYLE_ASSIGNMENT (( #380 ) ) ;
#382 = SURFACE_SIDE_STYLE ('',( #374 ) ) ;
#383 = STYLED_ITEM ( 'NONE', ( #381 ), #299 ) ;
#384 =( GEOMETRIC_REPRESENTATION_CONTEXT ( 3 ) GLOBAL_UNCERTAINTY_ASSIGNED_CONTEXT ( ( #389 ) ) GLOBAL_UNIT_ASSIGNED_CONTEXT ( ( #365, #367, #13 ) ) REPRESENTATION_CONTEXT ( 'NONE', 'WORKASPACE' ) );
#385 = APPLICATION_CONTEXT ( 'automotive_design' ) ;
#386 = PRODUCT_RELATED_PRODUCT_CATEGORY ( 'part', '', ( #395 ) ) ;
#387 = APPLICATION_CONTEXT ( 'automotive_design' ) ;
#388 = APPLICATION_PROTOCOL_DEFINITION ( 'draft international standard', 'automotive_design', 1998, #387 ) ;
#389 = UNCERTAINTY_MEASURE_WITH_UNIT (LENGTH_MEASURE( 1.000000000000000100E-005 ), #365, 'distance_accuracy_value', 'NONE');
#390 = PRODUCT_CONTEXT ( 'NONE', #387, 'mechanical' ) ;
#391 = PRODUCT_DEFINITION_CONTEXT ( 'detailed design', #385, 'design' ) ;
#392 = PRODUCT_DEFINITION_FORMATION_WITH_SPECIFIED_SOURCE ( 'ANY', '', #395, .NOT_KNOWN. ) ;
#393 = APPLICATION_PROTOCOL_DEFINITION ( 'draft international standard', 'automotive_design', 1998, #385 ) ;
#394 = PRODUCT_DEFINITION ( 'UNKNOWN', '', #392, #391 ) ;
#395 = PRODUCT ( '24987-E0W', '24987-E0W', '', ( #390 ) ) ;
#396 = PRODUCT_DEFINITION_SHAPE ( 'NONE', 'NONE',  #394 ) ;
#397 = SHAPE_DEFINITION_REPRESENTATION ( #396, #299 ) ;
#398 = DIRECTION ( 'NONE',  ( 1.000000000000000000, 0.0000000000000000000, 0.0000000000000000000 ) ) ;
#399 = DIRECTION ( 'NONE',  ( 0.0000000000000000000, 0.0000000000000000000, 1.000000000000000000 ) ) ;
#400 = AXIS2_PLACEMENT_3D ( 'NONE', #401, #399, #398 ) ;
#401 = CARTESIAN_POINT ( 'NONE',  ( 0.0000000000000000000, 0.0000000000000000000, 0.0000000000000000000 ) ) ;
ENDSEC;
END-ISO-10303-21;
