ISO-10303-21;
HEADER;
FILE_DESCRIPTION (( 'STEP AP203' ),
    '1' );
FILE_NAME ('Web Model 66750.STEP',
    '2017-01-31T19:38:11',
    ( '' ),
    ( '' ),
    'SwSTEP 2.0',
    'SolidWorks 2016',
    '' );
FILE_SCHEMA (( 'CONFIG_CONTROL_DESIGN' ));
ENDSEC;

DATA;
#1 = DIRECTION ( 'NONE',  ( 1.000000000000000000, 0.0000000000000000000, 0.0000000000000000000 ) ) ;
#2 = CC_DESIGN_APPROVAL ( #274, ( #21 ) ) ;
#3 = CARTESIAN_POINT ( 'NONE',  ( 0.0000000000000000000, 6.250000000000000000, 0.0004332125146009830100 ) ) ;
#4 = CARTESIAN_POINT ( 'NONE',  ( 0.0000000000000000000, 0.0000000000000000000, 0.0000000000000000000 ) ) ;
#5 = PERSON_AND_ORGANIZATION ( #155, #105 ) ;
#6 =( BOUNDED_SURFACE ( )  B_SPLINE_SURFACE ( 3, 2, ( 
 ( #159, #72, #244, #32, #157, #179, #180, #181, #4 ),
 ( #223, #248, #116, #198, #33, #196, #30, #160, #52 ),
 ( #267, #137, #119, #94, #220, #91, #140, #74, #178 ),
 ( #3, #90, #246, #53, #96, #73, #117, #200, #221 ) ),
 .UNSPECIFIED., .F., .T., .F. ) 
 B_SPLINE_SURFACE_WITH_KNOTS ( ( 4, 4 ),
 ( 3, 2, 2, 2, 3 ),
 ( 0.0000000000000000000, 1.000000000000000000 ),
 ( 0.0000000000000000000, 90.00000000000000000, 180.0000000000000000, 270.0000000000000000, 360.0000000000000000 ),
 .UNSPECIFIED. ) 
 GEOMETRIC_REPRESENTATION_ITEM ( )  RATIONAL_B_SPLINE_SURFACE ( (
 ( 1.000000000000000000, 0.7071067811865480200, 1.000000000000000000, 0.7071067811865480200, 1.000000000000000000, 0.7071067811865480200, 1.000000000000000000, 0.7071067811865480200, 1.000000000000000000),
 ( 1.000000000000000000, 0.7071067811865480200, 1.000000000000000000, 0.7071067811865480200, 1.000000000000000000, 0.7071067811865480200, 1.000000000000000000, 0.7071067811865480200, 1.000000000000000000),
 ( 1.000000000000000000, 0.7071067811865480200, 1.000000000000000000, 0.7071067811865480200, 1.000000000000000000, 0.7071067811865480200, 1.000000000000000000, 0.7071067811865480200, 1.000000000000000000),
 ( 1.000000000000000000, 0.7071067811865480200, 1.000000000000000000, 0.7071067811865480200, 1.000000000000000000, 0.7071067811865480200, 1.000000000000000000, 0.7071067811865480200, 1.000000000000000000) ) ) 
 REPRESENTATION_ITEM ( '' )  SURFACE ( )  );
#7 = CARTESIAN_POINT ( 'NONE',  ( 0.0000000000000000000, 0.0000000000000000000, 0.0000000000000000000 ) ) ;
#8 = ADVANCED_FACE ( 'NONE', ( #169 ), #6, .T. ) ;
#9 = DIRECTION ( 'NONE',  ( -0.0000000000000000000, 0.0000000000000000000, 1.000000000000000000 ) ) ;
#10 = AXIS2_PLACEMENT_3D ( 'NONE', #183, #163, #141 ) ;
#11 = EDGE_LOOP ( 'NONE', ( #45, #88 ) ) ;
#12 = CARTESIAN_POINT ( 'NONE',  ( -1.007734056094522000E-015, 8.163829937277498000E-016, -3.000000000000000000 ) ) ;
#13 = CARTESIAN_POINT ( 'NONE',  ( -7.654042494670956600E-016, -6.249999999999999100, 0.0004332125146009831200 ) ) ;
#14 = CARTESIAN_POINT ( 'NONE',  ( 2.083333344586410200, 2.083333344586410200, 0.0000000000000000000 ) ) ;
#15 = CARTESIAN_POINT ( 'NONE',  ( -4.166666735487430300, 2.551347540364219800E-016, -0.0001444041525412150100 ) ) ;
#16 = CARTESIAN_POINT ( 'NONE',  ( -2.551347512004690000E-016, -2.083333344586410200, 0.0000000000000000000 ) ) ;
#17 = EDGE_CURVE ( 'NONE', #150, #111, #251, .T. ) ;
#18 = CARTESIAN_POINT ( 'NONE',  ( 0.0000000000000000000, 2.083333344586410200, 0.0000000000000000000 ) ) ;
#19 = UNCERTAINTY_MEASURE_WITH_UNIT (LENGTH_MEASURE( 1.000000000000000100E-005 ), #170, 'distance_accuracy_value', 'NONE');
#20 = EDGE_LOOP ( 'NONE', ( #161, #136, #142, #211, #263 ) ) ;
#21 = SECURITY_CLASSIFICATION ( '', '', #133 ) ;
#22 = APPROVAL_ROLE ( '' ) ;
#23 = AXIS2_PLACEMENT_3D ( 'NONE', #42, #109, #213 ) ;
#24 = APPROVAL_PERSON_ORGANIZATION ( #139, #239, #191 ) ;
#25 = AXIS2_PLACEMENT_3D ( 'NONE', #97, #81, #182 ) ;
#26 = PRODUCT_DEFINITION_SHAPE ( 'NONE', 'NONE',  #171 ) ;
#27 = FACE_OUTER_BOUND ( 'NONE', #278, .T. ) ;
#28 = CARTESIAN_POINT ( 'NONE',  ( -6.250000000000000000, 1.653582669167220900E-015, -3.000000000000000000 ) ) ;
#29 = MANIFOLD_SOLID_BREP ( 'Imported1', #151 ) ;
#30 = CARTESIAN_POINT ( 'NONE',  ( 2.083333344586410200, -3.827021268007040400E-016, 0.0000000000000000000 ) ) ;
#31 = ORIENTED_EDGE ( 'NONE', *, *, #185, .F. ) ;
#32 = CARTESIAN_POINT ( 'NONE',  ( 0.0000000000000000000, 0.0000000000000000000, 0.0000000000000000000 ) ) ;
#33 = CARTESIAN_POINT ( 'NONE',  ( -2.551347512004690000E-016, -2.083333344586410200, 0.0000000000000000000 ) ) ;
#34 = DIRECTION ( 'NONE',  ( -8.470329472543003400E-021, 8.470329472543003400E-021, 1.000000000000000000 ) ) ;
#35 = DATE_AND_TIME ( #235, #89 ) ;
#36 = CC_DESIGN_PERSON_AND_ORGANIZATION_ASSIGNMENT ( #114, #284, ( #21 ) ) ;
#37 = PLANE ( 'NONE',  #125 ) ;
#38 = ORIENTED_EDGE ( 'NONE', *, *, #185, .T. ) ;
#39 = CARTESIAN_POINT ( 'NONE',  ( -6.250000000000000000, 6.250000000000000000, 0.0004332125146009830100 ) ) ;
#40 = CARTESIAN_POINT ( 'NONE',  ( -2.083333344586410200, 1.275673756002349900E-016, 0.0000000000000000000 ) ) ;
#41 = CIRCLE ( 'NONE', #10, 6.250000000000000000 ) ;
#42 = CARTESIAN_POINT ( 'NONE',  ( 0.0000000000000000000, 0.0000000000000000000, 0.0000000000000000000 ) ) ;
#43 = DATE_TIME_ROLE ( 'creation_date' ) ;
#44 = AXIS2_PLACEMENT_3D ( 'NONE', #50, #243, #1 ) ;
#45 = ORIENTED_EDGE ( 'NONE', *, *, #214, .F. ) ;
#46 = PERSON_AND_ORGANIZATION_ROLE ( 'design_owner' ) ;
#47 = PERSON_AND_ORGANIZATION ( #155, #105 ) ;
#48 = CIRCLE ( 'NONE', #268, 6.250000000000000000 ) ;
#49 = CC_DESIGN_APPROVAL ( #229, ( #66 ) ) ;
#50 = CARTESIAN_POINT ( 'NONE',  ( 0.0000000000000000000, 8.881784197001250400E-016, -3.000000000000000000 ) ) ;
#51 = CARTESIAN_POINT ( 'NONE',  ( 1.913510623667739900E-016, 8.163829937277498000E-016, 0.0004332125146009830700 ) ) ;
#52 = CARTESIAN_POINT ( 'NONE',  ( 0.0000000000000000000, 2.083333344586410200, 0.0000000000000000000 ) ) ;
#53 = CARTESIAN_POINT ( 'NONE',  ( -6.250000000000000000, -6.250000000000000000, 0.0004332125146009830100 ) ) ;
#54 = EDGE_LOOP ( 'NONE', ( #194, #79, #38, #122 ) ) ;
#55 = DIRECTION ( 'NONE',  ( 1.000000000000000000, 0.0000000000000000000, 0.0000000000000000000 ) ) ;
#56 = CARTESIAN_POINT ( 'NONE',  ( -2.551347512004690000E-016, -2.083333344586410200, 0.0000000000000000000 ) ) ;
#57 = CARTESIAN_POINT ( 'NONE',  ( -12.95400000000000100, 0.0000000000000000000, -3.000000000000000000 ) ) ;
#58 = CARTESIAN_POINT ( 'NONE',  ( 0.0000000000000000000, 0.0000000000000000000, 0.0000000000000000000 ) ) ;
#59 = CARTESIAN_POINT ( 'NONE',  ( 0.0000000000000000000, 4.166666735487430300, -0.0001444041525412150100 ) ) ;
#60 = COORDINATED_UNIVERSAL_TIME_OFFSET ( 5, 0, .BEHIND. ) ;
#61 = CARTESIAN_POINT ( 'NONE',  ( 4.166666735487431200, -4.166666735487431200, -0.0001444041525412150100 ) ) ;
#62 =( NAMED_UNIT ( * ) SI_UNIT ( $, .STERADIAN. ) SOLID_ANGLE_UNIT ( ) );
#63 = COORDINATED_UNIVERSAL_TIME_OFFSET ( 5, 0, .BEHIND. ) ;
#64 = CIRCLE ( 'NONE', #71, 6.250000000000000000 ) ;
#65 = APPROVAL_STATUS ( 'not_yet_approved' ) ;
#66 = PRODUCT_DEFINITION_FORMATION_WITH_SPECIFIED_SOURCE ( 'ANY', '', #272, .NOT_KNOWN. ) ;
#67 = APPROVAL_ROLE ( '' ) ;
#68 = PERSON_AND_ORGANIZATION ( #155, #105 ) ;
#69 = EDGE_CURVE ( 'NONE', #199, #177, #48, .T. ) ;
#70 = APPROVAL_PERSON_ORGANIZATION ( #68, #274, #22 ) ;
#71 = AXIS2_PLACEMENT_3D ( 'NONE', #143, #162, #76 ) ;
#72 = CARTESIAN_POINT ( 'NONE',  ( 0.0000000000000000000, 0.0000000000000000000, 0.0000000000000000000 ) ) ;
#73 = CARTESIAN_POINT ( 'NONE',  ( 6.250000000000000000, -6.250000000000000000, 0.0004332125146009830100 ) ) ;
#74 = CARTESIAN_POINT ( 'NONE',  ( 4.166666735487431200, 4.166666735487431200, -0.0001444041525412150100 ) ) ;
#75 = DATE_AND_TIME ( #135, #174 ) ;
#76 = DIRECTION ( 'NONE',  ( 1.000000000000000000, 0.0000000000000000000, 8.470329472543003400E-021 ) ) ;
#77 = CARTESIAN_POINT ( 'NONE',  ( 6.249999999999999100, 8.163829937277498000E-016, -3.000000000000000000 ) ) ;
#78 = COORDINATED_UNIVERSAL_TIME_OFFSET ( 5, 0, .BEHIND. ) ;
#79 = ORIENTED_EDGE ( 'NONE', *, *, #257, .T. ) ;
#80 = CARTESIAN_POINT ( 'NONE',  ( -4.814824860968089600E-032, 6.250000000000001800, 0.0004332125146009830100 ) ) ;
#81 = DIRECTION ( 'NONE',  ( -0.0000000000000000000, 0.0000000000000000000, 1.000000000000000000 ) ) ;
#82 = CC_DESIGN_SECURITY_CLASSIFICATION ( #21, ( #66 ) ) ;
#83 = CARTESIAN_POINT ( 'NONE',  ( 0.0000000000000000000, 0.0000000000000000000, 0.0000000000000000000 ) ) ;
#84 = DIRECTION ( 'NONE',  ( 0.0000000000000000000, 0.0000000000000000000, 1.000000000000000000 ) ) ;
#85 = CARTESIAN_POINT ( 'NONE',  ( 6.250000000000000000, -1.148106374200640000E-015, 0.0004332125146009830100 ) ) ;
#86 = CARTESIAN_POINT ( 'NONE',  ( -2.083333344586410200, 2.083333344586410200, 0.0000000000000000000 ) ) ;
#87 = DATE_TIME_ROLE ( 'classification_date' ) ;
#88 = ORIENTED_EDGE ( 'NONE', *, *, #209, .F. ) ;
#89 = LOCAL_TIME ( 14, 38, 11.00000000000000000, #60 ) ;
#90 = CARTESIAN_POINT ( 'NONE',  ( -6.250000000000000000, 6.250000000000000000, 0.0004332125146009830100 ) ) ;
#91 = CARTESIAN_POINT ( 'NONE',  ( 4.166666735487431200, -4.166666735487431200, -0.0001444041525412150100 ) ) ;
#92 = ORIENTED_EDGE ( 'NONE', *, *, #257, .F. ) ;
#93 = CALENDAR_DATE ( 2017, 31, 1 ) ;
#94 = CARTESIAN_POINT ( 'NONE',  ( -4.166666735487431200, -4.166666735487431200, -0.0001444041525412150100 ) ) ;
#95 = ADVANCED_FACE ( 'NONE', ( #226 ), #242, .T. ) ;
#96 = CARTESIAN_POINT ( 'NONE',  ( -7.654042494670959600E-016, -6.250000000000000000, 0.0004332125146009830100 ) ) ;
#97 = CARTESIAN_POINT ( 'NONE',  ( -1.007734056094522000E-015, 8.163829937277498000E-016, -3.000000000000000000 ) ) ;
#98 = DATE_AND_TIME ( #285, #121 ) ;
#99 = CIRCLE ( 'NONE', #120, 6.250000000000000000 ) ;
#100 = CARTESIAN_POINT ( 'NONE',  ( 0.0000000000000000000, 8.881784197001250400E-016, -3.000000000000000000 ) ) ;
#101 = DIRECTION ( 'NONE',  ( 0.0000000000000000000, 0.0000000000000000000, 1.000000000000000000 ) ) ;
#102 = DIRECTION ( 'NONE',  ( -1.000000000000000000, 0.0000000000000000000, -0.0000000000000000000 ) ) ;
#103 = CARTESIAN_POINT ( 'NONE',  ( 1.913510623667739900E-016, 8.163829937277498000E-016, 0.0004332125146009830700 ) ) ;
#104 = CARTESIAN_POINT ( 'NONE',  ( -5.102695080728439600E-016, -4.166666735487430300, -0.0001444041525412150100 ) ) ;
#105 = ORGANIZATION ( 'UNSPECIFIED', 'UNSPECIFIED', '' ) ;
#106 = VECTOR ( 'NONE', #176, 1000.000000000000000 ) ;
#107 = CARTESIAN_POINT ( 'NONE',  ( -2.083333344586410200, -2.083333344586410200, 0.0000000000000000000 ) ) ;
#108 =( NAMED_UNIT ( * ) PLANE_ANGLE_UNIT ( ) SI_UNIT ( $, .RADIAN. ) );
#109 = DIRECTION ( 'NONE',  ( 0.0000000000000000000, 0.0000000000000000000, 1.000000000000000000 ) ) ;
#110 = B_SPLINE_CURVE_WITH_KNOTS ( 'NONE', 3,
 ( #249, #56, #204, #13 ),
 .UNSPECIFIED., .F., .F.,
 ( 4, 4 ),
 ( 0.0000000000000000000, 1.000000000000000000 ),
 .UNSPECIFIED. ) ;
#111 = VERTEX_POINT ( 'NONE', #144 ) ;
#112 = EDGE_CURVE ( 'NONE', #111, #199, #99, .T. ) ;
#113 = DESIGN_CONTEXT ( 'detailed design', #280, 'design' ) ;
#114 = PERSON_AND_ORGANIZATION ( #155, #105 ) ;
#115 = CIRCLE ( 'NONE', #118, 6.250000000000000000 ) ;
#116 = CARTESIAN_POINT ( 'NONE',  ( -2.083333344586410200, 1.275673756002349900E-016, 0.0000000000000000000 ) ) ;
#117 = CARTESIAN_POINT ( 'NONE',  ( 6.250000000000000000, -1.148106374200640000E-015, 0.0004332125146009830100 ) ) ;
#118 = AXIS2_PLACEMENT_3D ( 'NONE', #12, #9, #55 ) ;
#119 = CARTESIAN_POINT ( 'NONE',  ( -4.166666735487430300, 2.551347540364219800E-016, -0.0001444041525412150100 ) ) ;
#120 = AXIS2_PLACEMENT_3D ( 'NONE', #103, #252, #228 ) ;
#121 = LOCAL_TIME ( 14, 38, 11.00000000000000000, #78 ) ;
#122 = ORIENTED_EDGE ( 'NONE', *, *, #112, .T. ) ;
#123 = CARTESIAN_POINT ( 'NONE',  ( 0.0000000000000000000, 0.0000000000000000000, 0.0000000000000000000 ) ) ;
#124 = DIRECTION ( 'NONE',  ( 1.000000000000000000, 0.0000000000000000000, 8.470329472543003400E-021 ) ) ;
#125 = AXIS2_PLACEMENT_3D ( 'NONE', #57, #232, #102 ) ;
#126 = CALENDAR_DATE ( 2017, 31, 1 ) ;
#127 = CARTESIAN_POINT ( 'NONE',  ( 2.083333344586410200, -2.083333344586410200, 0.0000000000000000000 ) ) ;
#128 = CARTESIAN_POINT ( 'NONE',  ( -4.814824860968089600E-032, 6.250000000000001800, 0.0004332125146009830100 ) ) ;
#129 = CARTESIAN_POINT ( 'NONE',  ( -6.250000000000000000, 3.827021247335479800E-016, 0.0004332125146009830100 ) ) ;
#130 = AXIS2_PLACEMENT_3D ( 'NONE', #100, #101, #253 ) ;
#131 = CIRCLE ( 'NONE', #25, 6.250000000000000000 ) ;
#132 = CYLINDRICAL_SURFACE ( 'NONE', #130, 6.250000000000000000 ) ;
#133 = SECURITY_CLASSIFICATION_LEVEL ( 'unclassified' ) ;
#134 = MECHANICAL_CONTEXT ( 'NONE', #206, 'mechanical' ) ;
#135 = CALENDAR_DATE ( 2017, 31, 1 ) ;
#136 = ORIENTED_EDGE ( 'NONE', *, *, #209, .T. ) ;
#137 = CARTESIAN_POINT ( 'NONE',  ( -4.166666735487431200, 4.166666735487431200, -0.0001444041525412150100 ) ) ;
#138 = PRODUCT_RELATED_PRODUCT_CATEGORY ( 'detail', '', ( #272 ) ) ;
#139 = PERSON_AND_ORGANIZATION ( #155, #105 ) ;
#140 = CARTESIAN_POINT ( 'NONE',  ( 4.166666735487430300, -7.654042621092649600E-016, -0.0001444041525412150100 ) ) ;
#141 = DIRECTION ( 'NONE',  ( 1.000000000000000000, 0.0000000000000000000, 8.470329472543003400E-021 ) ) ;
#142 = ORIENTED_EDGE ( 'NONE', *, *, #265, .T. ) ;
#143 = CARTESIAN_POINT ( 'NONE',  ( 1.913510623667739900E-016, 8.163829937277498000E-016, 0.0004332125146009830700 ) ) ;
#144 = CARTESIAN_POINT ( 'NONE',  ( -6.250000000000000000, 1.653582669167220900E-015, 0.0004332125146009830100 ) ) ;
#145 = CARTESIAN_POINT ( 'NONE',  ( 6.250000000000000000, 8.163829937277498000E-016, 0.0004332125146009831200 ) ) ;
#146 = CARTESIAN_POINT ( 'NONE',  ( 0.0000000000000000000, 0.0000000000000000000, 0.0000000000000000000 ) ) ;
#147 = VERTEX_POINT ( 'NONE', #77 ) ;
#148 = CARTESIAN_POINT ( 'NONE',  ( -4.166666735487431200, 4.166666735487431200, -0.0001444041525412150100 ) ) ;
#149 = PERSON_AND_ORGANIZATION ( #155, #105 ) ;
#150 = VERTEX_POINT ( 'NONE', #165 ) ;
#151 = CLOSED_SHELL ( 'NONE', ( #247, #158, #8, #225, #95 ) ) ;
#152 = LOCAL_TIME ( 14, 38, 11.00000000000000000, #203 ) ;
#153 = APPLICATION_PROTOCOL_DEFINITION ( 'international standard', 'config_control_design', 1994, #280 ) ;
#154 = DATE_AND_TIME ( #126, #175 ) ;
#155 = PERSON ( 'UNSPECIFIED', 'UNSPECIFIED', 'UNSPECIFIED', ('UNSPECIFIED'), ('UNSPECIFIED'), ('UNSPECIFIED') ) ;
#156 = APPROVAL_DATE_TIME ( #282, #274 ) ;
#157 = CARTESIAN_POINT ( 'NONE',  ( 0.0000000000000000000, 0.0000000000000000000, 0.0000000000000000000 ) ) ;
#158 = ADVANCED_FACE ( 'NONE', ( #27 ), #132, .T. ) ;
#159 = CARTESIAN_POINT ( 'NONE',  ( 0.0000000000000000000, 0.0000000000000000000, 0.0000000000000000000 ) ) ;
#160 = CARTESIAN_POINT ( 'NONE',  ( 2.083333344586410200, 2.083333344586410200, 0.0000000000000000000 ) ) ;
#161 = ORIENTED_EDGE ( 'NONE', *, *, #17, .F. ) ;
#162 = DIRECTION ( 'NONE',  ( -8.470329472543003400E-021, 8.470329472543003400E-021, 1.000000000000000000 ) ) ;
#163 = DIRECTION ( 'NONE',  ( -8.470329472543003400E-021, 8.470329472543003400E-021, 1.000000000000000000 ) ) ;
#164 = ORIENTED_EDGE ( 'NONE', *, *, #69, .T. ) ;
#165 = CARTESIAN_POINT ( 'NONE',  ( -6.250000000000001800, 1.653582669167221100E-015, -3.000000000000000000 ) ) ;
#166 = CARTESIAN_POINT ( 'NONE',  ( 0.0000000000000000000, 4.166666735487430300, -0.0001444041525412150100 ) ) ;
#167 = CARTESIAN_POINT ( 'NONE',  ( 0.0000000000000000000, 2.083333344586410200, 0.0000000000000000000 ) ) ;
#168 = CARTESIAN_POINT ( 'NONE',  ( 0.0000000000000000000, 6.250000000000000000, 0.0004332125146009830100 ) ) ;
#169 = FACE_OUTER_BOUND ( 'NONE', #54, .T. ) ;
#170 =( LENGTH_UNIT ( ) NAMED_UNIT ( * ) SI_UNIT ( .MILLI., .METRE. ) );
#171 = PRODUCT_DEFINITION ( 'UNKNOWN', '', #66, #113 ) ;
#172 = APPROVAL_PERSON_ORGANIZATION ( #245, #229, #67 ) ;
#173 = VERTEX_POINT ( 'NONE', #201 ) ;
#174 = LOCAL_TIME ( 14, 38, 11.00000000000000000, #188 ) ;
#175 = LOCAL_TIME ( 14, 38, 11.00000000000000000, #63 ) ;
#176 = DIRECTION ( 'NONE',  ( 0.0000000000000000000, 0.0000000000000000000, 1.000000000000000000 ) ) ;
#177 = VERTEX_POINT ( 'NONE', #145 ) ;
#178 = CARTESIAN_POINT ( 'NONE',  ( 0.0000000000000000000, 4.166666735487430300, -0.0001444041525412150100 ) ) ;
#179 = CARTESIAN_POINT ( 'NONE',  ( 0.0000000000000000000, 0.0000000000000000000, 0.0000000000000000000 ) ) ;
#180 = CARTESIAN_POINT ( 'NONE',  ( 0.0000000000000000000, 0.0000000000000000000, 0.0000000000000000000 ) ) ;
#181 = CARTESIAN_POINT ( 'NONE',  ( 0.0000000000000000000, 0.0000000000000000000, 0.0000000000000000000 ) ) ;
#182 = DIRECTION ( 'NONE',  ( 1.000000000000000000, 0.0000000000000000000, 0.0000000000000000000 ) ) ;
#183 = CARTESIAN_POINT ( 'NONE',  ( 1.913510623667739900E-016, 8.163829937277498000E-016, 0.0004332125146009830700 ) ) ;
#184 = CC_DESIGN_APPROVAL ( #239, ( #171 ) ) ;
#185 = EDGE_CURVE ( 'NONE', #218, #111, #41, .T. ) ;
#186 = B_SPLINE_CURVE_WITH_KNOTS ( 'NONE', 3,
 ( #123, #256, #59, #128 ),
 .UNSPECIFIED., .F., .F.,
 ( 4, 4 ),
 ( 0.0000000000000000000, 1.000000000000000000 ),
 .UNSPECIFIED. ) ;
#187 = CARTESIAN_POINT ( 'NONE',  ( 6.250000000000000000, -6.250000000000000000, 0.0004332125146009830100 ) ) ;
#188 = COORDINATED_UNIVERSAL_TIME_OFFSET ( 5, 0, .BEHIND. ) ;
#189 = CARTESIAN_POINT ( 'NONE',  ( 6.250000000000000000, 6.250000000000000000, 0.0004332125146009830100 ) ) ;
#190 = CARTESIAN_POINT ( 'NONE',  ( 0.0000000000000000000, 4.166666735487430300, -0.0001444041525412150100 ) ) ;
#191 = APPROVAL_ROLE ( '' ) ;
#192 = PERSON_AND_ORGANIZATION_ROLE ( 'creator' ) ;
#193 = VECTOR ( 'NONE', #84, 1000.000000000000000 ) ;
#194 = ORIENTED_EDGE ( 'NONE', *, *, #216, .F. ) ;
#195 = CC_DESIGN_PERSON_AND_ORGANIZATION_ASSIGNMENT ( #149, #237, ( #171 ) ) ;
#196 = CARTESIAN_POINT ( 'NONE',  ( 2.083333344586410200, -2.083333344586410200, 0.0000000000000000000 ) ) ;
#197 = EDGE_CURVE ( 'NONE', #177, #218, #64, .T. ) ;
#198 = CARTESIAN_POINT ( 'NONE',  ( -2.083333344586410200, -2.083333344586410200, 0.0000000000000000000 ) ) ;
#199 = VERTEX_POINT ( 'NONE', #227 ) ;
#200 = CARTESIAN_POINT ( 'NONE',  ( 6.250000000000000000, 6.250000000000000000, 0.0004332125146009830100 ) ) ;
#201 = CARTESIAN_POINT ( 'NONE',  ( 0.0000000000000000000, 0.0000000000000000000, 0.0000000000000000000 ) ) ;
#202 = ORIENTED_EDGE ( 'NONE', *, *, #214, .T. ) ;
#203 = COORDINATED_UNIVERSAL_TIME_OFFSET ( 5, 0, .BEHIND. ) ;
#204 = CARTESIAN_POINT ( 'NONE',  ( -5.102695080728439600E-016, -4.166666735487430300, -0.0001444041525412150100 ) ) ;
#205 = CARTESIAN_POINT ( 'NONE',  ( 0.0000000000000000000, 0.0000000000000000000, 0.0000000000000000000 ) ) ;
#206 = APPLICATION_CONTEXT ( 'configuration controlled 3d designs of mechanical parts and assemblies' ) ;
#207 = CC_DESIGN_PERSON_AND_ORGANIZATION_ASSIGNMENT ( #47, #46, ( #272 ) ) ;
#208 = CARTESIAN_POINT ( 'NONE',  ( -6.250000000000000000, -6.250000000000000000, 0.0004332125146009830100 ) ) ;
#209 = EDGE_CURVE ( 'NONE', #150, #147, #115, .T. ) ;
#210 = CARTESIAN_POINT ( 'NONE',  ( -7.654042494670959600E-016, -6.250000000000000000, 0.0004332125146009830100 ) ) ;
#211 = ORIENTED_EDGE ( 'NONE', *, *, #69, .F. ) ;
#212 = CC_DESIGN_DATE_AND_TIME_ASSIGNMENT ( #98, #43, ( #171 ) ) ;
#213 = DIRECTION ( 'NONE',  ( 1.000000000000000000, 0.0000000000000000000, 0.0000000000000000000 ) ) ;
#214 = EDGE_CURVE ( 'NONE', #147, #150, #131, .T. ) ;
#215 = ORIENTED_EDGE ( 'NONE', *, *, #17, .T. ) ;
#216 = EDGE_CURVE ( 'NONE', #173, #199, #110, .T. ) ;
#217 =( GEOMETRIC_REPRESENTATION_CONTEXT ( 3 ) GLOBAL_UNCERTAINTY_ASSIGNED_CONTEXT ( ( #19 ) ) GLOBAL_UNIT_ASSIGNED_CONTEXT ( ( #170, #108, #62 ) ) REPRESENTATION_CONTEXT ( 'NONE', 'WORKASPACE' ) );
#218 = VERTEX_POINT ( 'NONE', #80 ) ;
#219 = EDGE_LOOP ( 'NONE', ( #92, #231, #164, #269 ) ) ;
#220 = CARTESIAN_POINT ( 'NONE',  ( -5.102695080728439600E-016, -4.166666735487430300, -0.0001444041525412150100 ) ) ;
#221 = CARTESIAN_POINT ( 'NONE',  ( 0.0000000000000000000, 6.250000000000000000, 0.0004332125146009830100 ) ) ;
#222 = ADVANCED_BREP_SHAPE_REPRESENTATION ( 'Web Model 66750', ( #29, #23 ), #217 ) ;
#223 = CARTESIAN_POINT ( 'NONE',  ( 0.0000000000000000000, 2.083333344586410200, 0.0000000000000000000 ) ) ;
#224 = APPROVAL_DATE_TIME ( #154, #239 ) ;
#225 = ADVANCED_FACE ( 'NONE', ( #240 ), #37, .T. ) ;
#226 = FACE_OUTER_BOUND ( 'NONE', #20, .T. ) ;
#227 = CARTESIAN_POINT ( 'NONE',  ( -7.654042494670956600E-016, -6.249999999999999100, 0.0004332125146009831200 ) ) ;
#228 = DIRECTION ( 'NONE',  ( 1.000000000000000000, 0.0000000000000000000, 8.470329472543003400E-021 ) ) ;
#229 = APPROVAL ( #238, 'UNSPECIFIED' ) ;
#230 = PERSON_AND_ORGANIZATION ( #155, #105 ) ;
#231 = ORIENTED_EDGE ( 'NONE', *, *, #216, .T. ) ;
#232 = DIRECTION ( 'NONE',  ( 0.0000000000000000000, 0.0000000000000000000, -1.000000000000000000 ) ) ;
#233 = CARTESIAN_POINT ( 'NONE',  ( 0.0000000000000000000, 0.0000000000000000000, 0.0000000000000000000 ) ) ;
#234 = APPLICATION_PROTOCOL_DEFINITION ( 'international standard', 'config_control_design', 1994, #206 ) ;
#235 = CALENDAR_DATE ( 2017, 31, 1 ) ;
#236 = CARTESIAN_POINT ( 'NONE',  ( 4.166666735487430300, -7.654042621092649600E-016, -0.0001444041525412150100 ) ) ;
#237 = PERSON_AND_ORGANIZATION_ROLE ( 'creator' ) ;
#238 = APPROVAL_STATUS ( 'not_yet_approved' ) ;
#239 = APPROVAL ( #65, 'UNSPECIFIED' ) ;
#240 = FACE_OUTER_BOUND ( 'NONE', #11, .T. ) ;
#241 = FACE_OUTER_BOUND ( 'NONE', #219, .T. ) ;
#242 = CYLINDRICAL_SURFACE ( 'NONE', #44, 6.250000000000000000 ) ;
#243 = DIRECTION ( 'NONE',  ( 0.0000000000000000000, 0.0000000000000000000, 1.000000000000000000 ) ) ;
#244 = CARTESIAN_POINT ( 'NONE',  ( 0.0000000000000000000, 0.0000000000000000000, 0.0000000000000000000 ) ) ;
#245 = PERSON_AND_ORGANIZATION ( #155, #105 ) ;
#246 = CARTESIAN_POINT ( 'NONE',  ( -6.250000000000000000, 3.827021247335479800E-016, 0.0004332125146009830100 ) ) ;
#247 = ADVANCED_FACE ( 'NONE', ( #241 ), #266, .T. ) ;
#248 = CARTESIAN_POINT ( 'NONE',  ( -2.083333344586410200, 2.083333344586410200, 0.0000000000000000000 ) ) ;
#249 = CARTESIAN_POINT ( 'NONE',  ( 0.0000000000000000000, 0.0000000000000000000, 0.0000000000000000000 ) ) ;
#250 = LINE ( 'NONE', #277, #193 ) ;
#251 = LINE ( 'NONE', #28, #106 ) ;
#252 = DIRECTION ( 'NONE',  ( -8.470329472543003400E-021, 8.470329472543003400E-021, 1.000000000000000000 ) ) ;
#253 = DIRECTION ( 'NONE',  ( 1.000000000000000000, 0.0000000000000000000, 0.0000000000000000000 ) ) ;
#254 = CARTESIAN_POINT ( 'NONE',  ( -4.166666735487431200, -4.166666735487431200, -0.0001444041525412150100 ) ) ;
#255 = CARTESIAN_POINT ( 'NONE',  ( 0.0000000000000000000, 0.0000000000000000000, 0.0000000000000000000 ) ) ;
#256 = CARTESIAN_POINT ( 'NONE',  ( 0.0000000000000000000, 2.083333344586410200, 0.0000000000000000000 ) ) ;
#257 = EDGE_CURVE ( 'NONE', #173, #218, #186, .T. ) ;
#258 = CARTESIAN_POINT ( 'NONE',  ( 4.166666735487431200, 4.166666735487431200, -0.0001444041525412150100 ) ) ;
#259 = APPROVAL_DATE_TIME ( #35, #229 ) ;
#260 = CC_DESIGN_PERSON_AND_ORGANIZATION_ASSIGNMENT ( #230, #192, ( #66 ) ) ;
#261 = PERSON_AND_ORGANIZATION_ROLE ( 'design_supplier' ) ;
#262 = CC_DESIGN_DATE_AND_TIME_ASSIGNMENT ( #75, #87, ( #21 ) ) ;
#263 = ORIENTED_EDGE ( 'NONE', *, *, #112, .F. ) ;
#264 = SHAPE_DEFINITION_REPRESENTATION ( #26, #222 ) ;
#265 = EDGE_CURVE ( 'NONE', #147, #177, #250, .T. ) ;
#266 =( BOUNDED_SURFACE ( )  B_SPLINE_SURFACE ( 3, 2, ( 
 ( #58, #205, #233, #275, #270, #7, #146, #255, #83 ),
 ( #18, #86, #40, #107, #16, #127, #276, #14, #167 ),
 ( #166, #148, #15, #254, #104, #61, #236, #258, #190 ),
 ( #168, #39, #129, #208, #210, #187, #85, #189, #279 ) ),
 .UNSPECIFIED., .F., .T., .F. ) 
 B_SPLINE_SURFACE_WITH_KNOTS ( ( 4, 4 ),
 ( 3, 2, 2, 2, 3 ),
 ( 0.0000000000000000000, 1.000000000000000000 ),
 ( 0.0000000000000000000, 90.00000000000000000, 180.0000000000000000, 270.0000000000000000, 360.0000000000000000 ),
 .UNSPECIFIED. ) 
 GEOMETRIC_REPRESENTATION_ITEM ( )  RATIONAL_B_SPLINE_SURFACE ( (
 ( 1.000000000000000000, 0.7071067811865480200, 1.000000000000000000, 0.7071067811865480200, 1.000000000000000000, 0.7071067811865480200, 1.000000000000000000, 0.7071067811865480200, 1.000000000000000000),
 ( 1.000000000000000000, 0.7071067811865480200, 1.000000000000000000, 0.7071067811865480200, 1.000000000000000000, 0.7071067811865480200, 1.000000000000000000, 0.7071067811865480200, 1.000000000000000000),
 ( 1.000000000000000000, 0.7071067811865480200, 1.000000000000000000, 0.7071067811865480200, 1.000000000000000000, 0.7071067811865480200, 1.000000000000000000, 0.7071067811865480200, 1.000000000000000000),
 ( 1.000000000000000000, 0.7071067811865480200, 1.000000000000000000, 0.7071067811865480200, 1.000000000000000000, 0.7071067811865480200, 1.000000000000000000, 0.7071067811865480200, 1.000000000000000000) ) ) 
 REPRESENTATION_ITEM ( '' )  SURFACE ( )  );
#267 = CARTESIAN_POINT ( 'NONE',  ( 0.0000000000000000000, 4.166666735487430300, -0.0001444041525412150100 ) ) ;
#268 = AXIS2_PLACEMENT_3D ( 'NONE', #51, #34, #124 ) ;
#269 = ORIENTED_EDGE ( 'NONE', *, *, #197, .T. ) ;
#270 = CARTESIAN_POINT ( 'NONE',  ( 0.0000000000000000000, 0.0000000000000000000, 0.0000000000000000000 ) ) ;
#271 = CC_DESIGN_PERSON_AND_ORGANIZATION_ASSIGNMENT ( #5, #261, ( #66 ) ) ;
#272 = PRODUCT ( 'Web Model 66750', 'Web Model 66750', '', ( #134 ) ) ;
#273 = ORIENTED_EDGE ( 'NONE', *, *, #265, .F. ) ;
#274 = APPROVAL ( #283, 'UNSPECIFIED' ) ;
#275 = CARTESIAN_POINT ( 'NONE',  ( 0.0000000000000000000, 0.0000000000000000000, 0.0000000000000000000 ) ) ;
#276 = CARTESIAN_POINT ( 'NONE',  ( 2.083333344586410200, -3.827021268007040400E-016, 0.0000000000000000000 ) ) ;
#277 = CARTESIAN_POINT ( 'NONE',  ( 6.250000000000000000, 8.881784197001250400E-016, -3.000000000000000000 ) ) ;
#278 = EDGE_LOOP ( 'NONE', ( #202, #215, #31, #281, #273 ) ) ;
#279 = CARTESIAN_POINT ( 'NONE',  ( 0.0000000000000000000, 6.250000000000000000, 0.0004332125146009830100 ) ) ;
#280 = APPLICATION_CONTEXT ( 'configuration controlled 3d designs of mechanical parts and assemblies' ) ;
#281 = ORIENTED_EDGE ( 'NONE', *, *, #197, .F. ) ;
#282 = DATE_AND_TIME ( #93, #152 ) ;
#283 = APPROVAL_STATUS ( 'not_yet_approved' ) ;
#284 = PERSON_AND_ORGANIZATION_ROLE ( 'classification_officer' ) ;
#285 = CALENDAR_DATE ( 2017, 31, 1 ) ;
ENDSEC;
END-ISO-10303-21;
