ISO-10303-21;
HEADER;
FILE_DESCRIPTION (( 'STEP AP214' ),
    '1' );
FILE_NAME ('3277-E0W.STEP',
    '2009-12-21T16:56:53',
    ( ' ' ),
    ( ' ' ),
    'SwSTEP 2.0',
    'SolidWorks 2009',
    '' );
FILE_SCHEMA (( 'AUTOMOTIVE_DESIGN' ));
ENDSEC;

DATA;
#1 = APPLICATION_CONTEXT ( 'automotive_design' ) ;
#2 =( LENGTH_UNIT ( ) NAMED_UNIT ( * ) SI_UNIT ( .MILLI., .METRE. ) );
#3 = MECHANICAL_DESIGN_GEOMETRIC_PRESENTATION_REPRESENTATION (  '', ( #5 ), #12 ) ;
#4 = PRESENTATION_LAYER_ASSIGNMENT (  '', '', ( #5 ) ) ;
#5 = STYLED_ITEM ( 'NONE', ( #6 ), #44 ) ;
#6 = PRESENTATION_STYLE_ASSIGNMENT (( #7 ) ) ;
#7 = SURFACE_STYLE_USAGE ( .BOTH. , #8 ) ;
#8 = SURFACE_SIDE_STYLE ('',( #9 ) ) ;
#9 = SURFACE_STYLE_FILL_AREA ( #10 ) ;
#10 = FILL_AREA_STYLE ('',( #11 ) ) ;
#11 = FILL_AREA_STYLE_COLOUR ( '', #48 ) ;
#12 =( GEOMETRIC_REPRESENTATION_CONTEXT ( 3 ) GLOBAL_UNCERTAINTY_ASSIGNED_CONTEXT ( ( #13 ) ) GLOBAL_UNIT_ASSIGNED_CONTEXT ( ( #2, #15, #14 ) ) REPRESENTATION_CONTEXT ( 'NONE', 'WORKASPACE' ) );
#13 = UNCERTAINTY_MEASURE_WITH_UNIT (LENGTH_MEASURE( 1.000000000000000100E-005 ), #2, 'distance_accuracy_value', 'NONE');
#14 =( NAMED_UNIT ( * ) SI_UNIT ( $, .STERADIAN. ) SOLID_ANGLE_UNIT ( ) );
#15 =( NAMED_UNIT ( * ) PLANE_ANGLE_UNIT ( ) SI_UNIT ( $, .RADIAN. ) );
#16 = CARTESIAN_POINT ( 'NONE',  ( 0.0000000000000000000, 8.394953808155105800E-016, -2.285000000000000100 ) ) ;
#17 = PLANE ( 'NONE',  #94 ) ;
#18 =( GEOMETRIC_REPRESENTATION_CONTEXT ( 3 ) GLOBAL_UNCERTAINTY_ASSIGNED_CONTEXT ( ( #19 ) ) GLOBAL_UNIT_ASSIGNED_CONTEXT ( ( #29, #28, #20 ) ) REPRESENTATION_CONTEXT ( 'NONE', 'WORKASPACE' ) );
#19 = UNCERTAINTY_MEASURE_WITH_UNIT (LENGTH_MEASURE( 1.000000000000000100E-005 ), #29, 'distance_accuracy_value', 'NONE');
#20 =( NAMED_UNIT ( * ) SI_UNIT ( $, .STERADIAN. ) SOLID_ANGLE_UNIT ( ) );
#21 = ORIENTED_EDGE ( 'NONE', *, *, #103, .T. ) ;
#22 = EDGE_LOOP ( 'NONE', ( #59, #60, #27, #26 ) ) ;
#23 = ORIENTED_EDGE ( 'NONE', *, *, #24, .T. ) ;
#24 = EDGE_CURVE ( 'NONE', #25, #110, #54, .T. ) ;
#25 = VERTEX_POINT ( 'NONE', #49 ) ;
#26 = ORIENTED_EDGE ( 'NONE', *, *, #71, .T. ) ;
#27 = ORIENTED_EDGE ( 'NONE', *, *, #100, .T. ) ;
#28 =( NAMED_UNIT ( * ) PLANE_ANGLE_UNIT ( ) SI_UNIT ( $, .RADIAN. ) );
#29 =( LENGTH_UNIT ( ) NAMED_UNIT ( * ) SI_UNIT ( .MILLI., .METRE. ) );
#30 = MECHANICAL_DESIGN_GEOMETRIC_PRESENTATION_REPRESENTATION (  '', ( #32 ), #18 ) ;
#31 = PRESENTATION_LAYER_ASSIGNMENT (  '', '', ( #32 ) ) ;
#32 = STYLED_ITEM ( 'NONE', ( #33 ), #57 ) ;
#33 = PRESENTATION_STYLE_ASSIGNMENT (( #34 ) ) ;
#34 = SURFACE_STYLE_USAGE ( .BOTH. , #35 ) ;
#35 = SURFACE_SIDE_STYLE ('',( #36 ) ) ;
#36 = SURFACE_STYLE_FILL_AREA ( #37 ) ;
#37 = FILL_AREA_STYLE ('',( #38 ) ) ;
#38 = FILL_AREA_STYLE_COLOUR ( '', #39 ) ;
#39 = COLOUR_RGB ( '',0.9568627450980391500, 0.9490196078431372100, 0.9607843137254902200 ) ;
#40 = FACE_OUTER_BOUND ( 'NONE', #111, .T. ) ;
#41 = CARTESIAN_POINT ( 'NONE',  ( 25.39999999999999900, 0.0000000000000000000, -2.285000000000000600 ) ) ;
#42 = EDGE_LOOP ( 'NONE', ( #43, #47, #23, #75 ) ) ;
#43 = ORIENTED_EDGE ( 'NONE', *, *, #97, .T. ) ;
#44 = MANIFOLD_SOLID_BREP ( 'NONE', #56 ) ;
#45 = VERTEX_POINT ( 'NONE', #41 ) ;
#46 = EDGE_LOOP ( 'NONE', ( #118, #116, #120, #99, #102 ) ) ;
#47 = ORIENTED_EDGE ( 'NONE', *, *, #112, .T. ) ;
#48 = COLOUR_RGB ( '',0.7960784313725489700, 0.8235294117647058400, 0.9372549019607843100 ) ;
#49 = CARTESIAN_POINT ( 'NONE',  ( -3.110500138708828700E-015, -25.39999999999992000, 0.7133109095837255600 ) ) ;
#50 = DIRECTION ( 'NONE',  ( -1.224606353822377300E-016, -1.000000000000000000, 0.0000000000000000000 ) ) ;
#51 = DIRECTION ( 'NONE',  ( -1.000000000000000000, 1.224606353822377300E-016, 0.0000000000000000000 ) ) ;
#52 = CARTESIAN_POINT ( 'NONE',  ( 0.0000000000000000000, 0.0000000000000000000, -203.7449999999999800 ) ) ;
#53 = AXIS2_PLACEMENT_3D ( 'NONE', #52, #51, #50 ) ;
#54 = CIRCLE ( 'NONE', #53, 206.0300000000000000 ) ;
#55 = APPLICATION_PROTOCOL_DEFINITION ( 'draft international standard', 'automotive_design', 1998, #1 ) ;
#56 = CLOSED_SHELL ( 'NONE', ( #115, #104, #58, #78, #57 ) ) ;
#57 = ADVANCED_FACE ( 'NONE', ( #40 ), #17, .F. ) ;
#58 = ADVANCED_FACE ( 'NONE', ( #96 ), #70, .T. ) ;
#59 = ORIENTED_EDGE ( 'NONE', *, *, #24, .F. ) ;
#60 = ORIENTED_EDGE ( 'NONE', *, *, #76, .T. ) ;
#61 = DIRECTION ( 'NONE',  ( 0.0000000000000000000, 0.0000000000000000000, -1.000000000000000000 ) ) ;
#62 = DIRECTION ( 'NONE',  ( 1.000000000000000000, 0.0000000000000000000, 0.0000000000000000000 ) ) ;
#63 = CARTESIAN_POINT ( 'NONE',  ( 0.0000000000000000000, 0.0000000000000000000, -203.7449999999999800 ) ) ;
#64 = AXIS2_PLACEMENT_3D ( 'NONE', #63, #62, #61 ) ;
#65 = DIRECTION ( 'NONE',  ( 0.0000000000000000000, 1.000000000000000000, 0.0000000000000000000 ) ) ;
#66 = DIRECTION ( 'NONE',  ( -1.000000000000000000, 0.0000000000000000000, 0.0000000000000000000 ) ) ;
#67 = CARTESIAN_POINT ( 'NONE',  ( 0.0000000000000000000, 0.0000000000000000000, -203.7449999999999800 ) ) ;
#68 = AXIS2_PLACEMENT_3D ( 'NONE', #67, #66, #65 ) ;
#69 = CIRCLE ( 'NONE', #64, 206.0300000000000300 ) ;
#70 = SPHERICAL_SURFACE ( 'NONE', #68, 206.0300000000000000 ) ;
#71 = EDGE_CURVE ( 'NONE', #98, #110, #69, .T. ) ;
#72 = EDGE_CURVE ( 'NONE', #80, #45, #208, .T. ) ;
#73 = ORIENTED_EDGE ( 'NONE', *, *, #76, .F. ) ;
#74 = ORIENTED_EDGE ( 'NONE', *, *, #112, .F. ) ;
#75 = ORIENTED_EDGE ( 'NONE', *, *, #71, .F. ) ;
#76 = EDGE_CURVE ( 'NONE', #25, #101, #168, .T. ) ;
#77 = ORIENTED_EDGE ( 'NONE', *, *, #72, .F. ) ;
#78 = ADVANCED_FACE ( 'NONE', ( #147 ), #157, .T. ) ;
#79 = ORIENTED_EDGE ( 'NONE', *, *, #117, .F. ) ;
#80 = VERTEX_POINT ( 'NONE', #178 ) ;
#81 = VERTEX_POINT ( 'NONE', #202 ) ;
#82 =( LENGTH_UNIT ( ) NAMED_UNIT ( * ) SI_UNIT ( .MILLI., .METRE. ) );
#83 = MECHANICAL_DESIGN_GEOMETRIC_PRESENTATION_REPRESENTATION (  '', ( #85 ), #105 ) ;
#84 = PRESENTATION_LAYER_ASSIGNMENT (  '', '', ( #85 ) ) ;
#85 = STYLED_ITEM ( 'NONE', ( #86 ), #58 ) ;
#86 = PRESENTATION_STYLE_ASSIGNMENT (( #87 ) ) ;
#87 = SURFACE_STYLE_USAGE ( .BOTH. , #88 ) ;
#88 = SURFACE_SIDE_STYLE ('',( #89 ) ) ;
#89 = SURFACE_STYLE_FILL_AREA ( #90 ) ;
#90 = FILL_AREA_STYLE ('',( #91 ) ) ;
#91 = FILL_AREA_STYLE_COLOUR ( '', #95 ) ;
#92 = DIRECTION ( 'NONE',  ( 1.000000000000000000, 0.0000000000000000000, 0.0000000000000000000 ) ) ;
#93 = DIRECTION ( 'NONE',  ( 0.0000000000000000000, -0.0000000000000000000, 1.000000000000000000 ) ) ;
#94 = AXIS2_PLACEMENT_3D ( 'NONE', #16, #93, #92 ) ;
#95 = COLOUR_RGB ( '',0.9568627450980391500, 0.9490196078431372100, 0.9607843137254902200 ) ;
#96 = FACE_OUTER_BOUND ( 'NONE', #22, .T. ) ;
#97 = EDGE_CURVE ( 'NONE', #98, #81, #198, .T. ) ;
#98 = VERTEX_POINT ( 'NONE', #121 ) ;
#99 = ORIENTED_EDGE ( 'NONE', *, *, #100, .F. ) ;
#100 = EDGE_CURVE ( 'NONE', #101, #98, #174, .T. ) ;
#101 = VERTEX_POINT ( 'NONE', #160 ) ;
#102 = ORIENTED_EDGE ( 'NONE', *, *, #103, .F. ) ;
#103 = EDGE_CURVE ( 'NONE', #45, #101, #158, .T. ) ;
#104 = ADVANCED_FACE ( 'NONE', ( #221 ), #193, .T. ) ;
#105 =( GEOMETRIC_REPRESENTATION_CONTEXT ( 3 ) GLOBAL_UNCERTAINTY_ASSIGNED_CONTEXT ( ( #106 ) ) GLOBAL_UNIT_ASSIGNED_CONTEXT ( ( #82, #108, #107 ) ) REPRESENTATION_CONTEXT ( 'NONE', 'WORKASPACE' ) );
#106 = UNCERTAINTY_MEASURE_WITH_UNIT (LENGTH_MEASURE( 1.000000000000000100E-005 ), #82, 'distance_accuracy_value', 'NONE');
#107 =( NAMED_UNIT ( * ) SI_UNIT ( $, .STERADIAN. ) SOLID_ANGLE_UNIT ( ) );
#108 =( NAMED_UNIT ( * ) PLANE_ANGLE_UNIT ( ) SI_UNIT ( $, .RADIAN. ) );
#109 = ORIENTED_EDGE ( 'NONE', *, *, #72, .T. ) ;
#110 = VERTEX_POINT ( 'NONE', #150 ) ;
#111 = EDGE_LOOP ( 'NONE', ( #114, #77 ) ) ;
#112 = EDGE_CURVE ( 'NONE', #81, #25, #155, .T. ) ;
#113 = EDGE_LOOP ( 'NONE', ( #79, #109, #21, #73, #74 ) ) ;
#114 = ORIENTED_EDGE ( 'NONE', *, *, #119, .F. ) ;
#115 = ADVANCED_FACE ( 'NONE', ( #156 ), #175, .T. ) ;
#116 = ORIENTED_EDGE ( 'NONE', *, *, #117, .T. ) ;
#117 = EDGE_CURVE ( 'NONE', #80, #81, #243, .T. ) ;
#118 = ORIENTED_EDGE ( 'NONE', *, *, #119, .T. ) ;
#119 = EDGE_CURVE ( 'NONE', #45, #80, #184, .T. ) ;
#120 = ORIENTED_EDGE ( 'NONE', *, *, #97, .F. ) ;
#121 = CARTESIAN_POINT ( 'NONE',  ( 0.0000000000000000000, 25.39999999999992000, 0.7133109095837255600 ) ) ;
#122 =( LENGTH_UNIT ( ) NAMED_UNIT ( * ) SI_UNIT ( .MILLI., .METRE. ) );
#123 = MECHANICAL_DESIGN_GEOMETRIC_PRESENTATION_REPRESENTATION (  '', ( #125 ), #176 ) ;
#124 = PRESENTATION_LAYER_ASSIGNMENT (  '', '', ( #125 ) ) ;
#125 = STYLED_ITEM ( 'NONE', ( #126 ), #115 ) ;
#126 = PRESENTATION_STYLE_ASSIGNMENT (( #127 ) ) ;
#127 = SURFACE_STYLE_USAGE ( .BOTH. , #128 ) ;
#128 = SURFACE_SIDE_STYLE ('',( #129 ) ) ;
#129 = SURFACE_STYLE_FILL_AREA ( #130 ) ;
#130 = FILL_AREA_STYLE ('',( #131 ) ) ;
#131 = FILL_AREA_STYLE_COLOUR ( '', #132 ) ;
#132 = COLOUR_RGB ( '',0.9568627450980391500, 0.9490196078431372100, 0.9607843137254902200 ) ;
#133 = DIRECTION ( 'NONE',  ( 1.000000000000000000, 0.0000000000000000000, 0.0000000000000000000 ) ) ;
#134 = DIRECTION ( 'NONE',  ( -0.0000000000000000000, -0.0000000000000000000, 1.000000000000000000 ) ) ;
#135 = CARTESIAN_POINT ( 'NONE',  ( 0.0000000000000000000, 0.0000000000000000000, 0.7133109095837425500 ) ) ;
#136 =( LENGTH_UNIT ( ) NAMED_UNIT ( * ) SI_UNIT ( .MILLI., .METRE. ) );
#137 = MECHANICAL_DESIGN_GEOMETRIC_PRESENTATION_REPRESENTATION (  '', ( #139 ), #213 ) ;
#138 = PRESENTATION_LAYER_ASSIGNMENT (  '', '', ( #139 ) ) ;
#139 = STYLED_ITEM ( 'NONE', ( #140 ), #209 ) ;
#140 = PRESENTATION_STYLE_ASSIGNMENT (( #141 ) ) ;
#141 = SURFACE_STYLE_USAGE ( .BOTH. , #142 ) ;
#142 = SURFACE_SIDE_STYLE ('',( #143 ) ) ;
#143 = SURFACE_STYLE_FILL_AREA ( #144 ) ;
#144 = FILL_AREA_STYLE ('',( #145 ) ) ;
#145 = FILL_AREA_STYLE_COLOUR ( '', #146 ) ;
#146 = COLOUR_RGB ( '',0.7960784313725489700, 0.8235294117647058400, 0.9372549019607843100 ) ;
#147 = FACE_OUTER_BOUND ( 'NONE', #113, .T. ) ;
#148 = DIRECTION ( 'NONE',  ( 0.0000000000000000000, 1.000000000000000000, 0.0000000000000000000 ) ) ;
#149 = DIRECTION ( 'NONE',  ( -1.000000000000000000, 0.0000000000000000000, 0.0000000000000000000 ) ) ;
#150 = CARTESIAN_POINT ( 'NONE',  ( 0.0000000000000000000, 1.261528235390121800E-014, 2.285000000000009000 ) ) ;
#151 = STYLED_ITEM ( 'NONE', ( #152 ), #78 ) ;
#152 = PRESENTATION_STYLE_ASSIGNMENT (( #153 ) ) ;
#153 = SURFACE_STYLE_USAGE ( .BOTH. , #218 ) ;
#154 = AXIS2_PLACEMENT_3D ( 'NONE', #135, #134, #133 ) ;
#155 = CIRCLE ( 'NONE', #154, 25.39999999999999900 ) ;
#156 = FACE_OUTER_BOUND ( 'NONE', #46, .T. ) ;
#157 = CYLINDRICAL_SURFACE ( 'NONE', #167, 25.39999999999999900 ) ;
#158 = LINE ( 'NONE', #239, #238 ) ;
#159 = FILL_AREA_STYLE_COLOUR ( '', #220 ) ;
#160 = CARTESIAN_POINT ( 'NONE',  ( 25.39999999999999900, 0.0000000000000000000, 0.7133109095837425500 ) ) ;
#161 = FILL_AREA_STYLE ('',( #251 ) ) ;
#162 = UNCERTAINTY_MEASURE_WITH_UNIT (LENGTH_MEASURE( 1.000000000000000100E-005 ), #165, 'distance_accuracy_value', 'NONE');
#163 =( NAMED_UNIT ( * ) SI_UNIT ( $, .STERADIAN. ) SOLID_ANGLE_UNIT ( ) );
#164 =( NAMED_UNIT ( * ) PLANE_ANGLE_UNIT ( ) SI_UNIT ( $, .RADIAN. ) );
#165 =( LENGTH_UNIT ( ) NAMED_UNIT ( * ) SI_UNIT ( .MILLI., .METRE. ) );
#166 = CARTESIAN_POINT ( 'NONE',  ( 0.0000000000000000000, 0.0000000000000000000, 4.308132045400366600 ) ) ;
#167 = AXIS2_PLACEMENT_3D ( 'NONE', #166, #177, #203 ) ;
#168 = CIRCLE ( 'NONE', #249, 25.39999999999999900 ) ;
#169 = CARTESIAN_POINT ( 'NONE',  ( 0.0000000000000000000, 0.0000000000000000000, 0.7133109095837425500 ) ) ;
#170 = DIRECTION ( 'NONE',  ( -0.0000000000000000000, -0.0000000000000000000, 1.000000000000000000 ) ) ;
#171 = DIRECTION ( 'NONE',  ( 1.000000000000000000, 0.0000000000000000000, 0.0000000000000000000 ) ) ;
#172 = DIRECTION ( 'NONE',  ( 1.000000000000000000, 0.0000000000000000000, 0.0000000000000000000 ) ) ;
#173 = UNCERTAINTY_MEASURE_WITH_UNIT (LENGTH_MEASURE( 1.000000000000000100E-005 ), #187, 'distance_accuracy_value', 'NONE');
#174 = CIRCLE ( 'NONE', #233, 25.39999999999999900 ) ;
#175 = CYLINDRICAL_SURFACE ( 'NONE', #247, 25.39999999999999900 ) ;
#176 =( GEOMETRIC_REPRESENTATION_CONTEXT ( 3 ) GLOBAL_UNCERTAINTY_ASSIGNED_CONTEXT ( ( #188 ) ) GLOBAL_UNIT_ASSIGNED_CONTEXT ( ( #122, #190, #189 ) ) REPRESENTATION_CONTEXT ( 'NONE', 'WORKASPACE' ) );
#177 = DIRECTION ( 'NONE',  ( -0.0000000000000000000, -0.0000000000000000000, 1.000000000000000000 ) ) ;
#178 = CARTESIAN_POINT ( 'NONE',  ( -25.39999999999999900, 3.110500138708838200E-015, -2.285000000000000600 ) ) ;
#179 = AXIS2_PLACEMENT_3D ( 'NONE', #186, #212, #211 ) ;
#180 = DIRECTION ( 'NONE',  ( 1.000000000000000000, 0.0000000000000000000, 0.0000000000000000000 ) ) ;
#181 = DIRECTION ( 'NONE',  ( -0.0000000000000000000, -0.0000000000000000000, 1.000000000000000000 ) ) ;
#182 = CARTESIAN_POINT ( 'NONE',  ( 0.0000000000000000000, 0.0000000000000000000, -2.285000000000000600 ) ) ;
#183 = AXIS2_PLACEMENT_3D ( 'NONE', #182, #181, #180 ) ;
#184 = CIRCLE ( 'NONE', #183, 25.39999999999999900 ) ;
#185 = COLOUR_RGB ( '',0.9568627450980391500, 0.9490196078431372100, 0.9607843137254902200 ) ;
#186 = CARTESIAN_POINT ( 'NONE',  ( 0.0000000000000000000, 0.0000000000000000000, 0.0000000000000000000 ) ) ;
#187 =( LENGTH_UNIT ( ) NAMED_UNIT ( * ) SI_UNIT ( .MILLI., .METRE. ) );
#188 = UNCERTAINTY_MEASURE_WITH_UNIT (LENGTH_MEASURE( 1.000000000000000100E-005 ), #122, 'distance_accuracy_value', 'NONE');
#189 =( NAMED_UNIT ( * ) SI_UNIT ( $, .STERADIAN. ) SOLID_ANGLE_UNIT ( ) );
#190 =( NAMED_UNIT ( * ) PLANE_ANGLE_UNIT ( ) SI_UNIT ( $, .RADIAN. ) );
#191 = CARTESIAN_POINT ( 'NONE',  ( 0.0000000000000000000, 0.0000000000000000000, -203.7449999999999800 ) ) ;
#192 = AXIS2_PLACEMENT_3D ( 'NONE', #191, #149, #148 ) ;
#193 = SPHERICAL_SURFACE ( 'NONE', #192, 206.0300000000000000 ) ;
#194 =( NAMED_UNIT ( * ) PLANE_ANGLE_UNIT ( ) SI_UNIT ( $, .RADIAN. ) );
#195 = DIRECTION ( 'NONE',  ( 1.000000000000000000, 0.0000000000000000000, 0.0000000000000000000 ) ) ;
#196 = DIRECTION ( 'NONE',  ( -0.0000000000000000000, -0.0000000000000000000, 1.000000000000000000 ) ) ;
#197 = AXIS2_PLACEMENT_3D ( 'NONE', #201, #196, #195 ) ;
#198 = CIRCLE ( 'NONE', #197, 25.39999999999999900 ) ;
#199 = CARTESIAN_POINT ( 'NONE',  ( 0.0000000000000000000, 0.0000000000000000000, -2.285000000000000600 ) ) ;
#200 =( NAMED_UNIT ( * ) SI_UNIT ( $, .STERADIAN. ) SOLID_ANGLE_UNIT ( ) );
#201 = CARTESIAN_POINT ( 'NONE',  ( 0.0000000000000000000, 0.0000000000000000000, 0.7133109095837425500 ) ) ;
#202 = CARTESIAN_POINT ( 'NONE',  ( -25.39999999999999900, 3.110500138708838200E-015, 0.7133109095837425500 ) ) ;
#203 = DIRECTION ( 'NONE',  ( 1.000000000000000000, 0.0000000000000000000, 0.0000000000000000000 ) ) ;
#204 = UNCERTAINTY_MEASURE_WITH_UNIT (LENGTH_MEASURE( 1.000000000000000100E-005 ), #206, 'distance_accuracy_value', 'NONE');
#205 =( NAMED_UNIT ( * ) SI_UNIT ( $, .STERADIAN. ) SOLID_ANGLE_UNIT ( ) );
#206 =( LENGTH_UNIT ( ) NAMED_UNIT ( * ) SI_UNIT ( .MILLI., .METRE. ) );
#207 = MECHANICAL_DESIGN_GEOMETRIC_PRESENTATION_REPRESENTATION (  '', ( #223 ), #217 ) ;
#208 = CIRCLE ( 'NONE', #229, 25.39999999999999900 ) ;
#209 = ADVANCED_BREP_SHAPE_REPRESENTATION ( '3277-E0W', ( #44, #179 ), #210 ) ;
#210 =( GEOMETRIC_REPRESENTATION_CONTEXT ( 3 ) GLOBAL_UNCERTAINTY_ASSIGNED_CONTEXT ( ( #162 ) ) GLOBAL_UNIT_ASSIGNED_CONTEXT ( ( #165, #164, #163 ) ) REPRESENTATION_CONTEXT ( 'NONE', 'WORKASPACE' ) );
#211 = DIRECTION ( 'NONE',  ( 1.000000000000000000, 0.0000000000000000000, 0.0000000000000000000 ) ) ;
#212 = DIRECTION ( 'NONE',  ( 0.0000000000000000000, 0.0000000000000000000, 1.000000000000000000 ) ) ;
#213 =( GEOMETRIC_REPRESENTATION_CONTEXT ( 3 ) GLOBAL_UNCERTAINTY_ASSIGNED_CONTEXT ( ( #214 ) ) GLOBAL_UNIT_ASSIGNED_CONTEXT ( ( #136, #216, #215 ) ) REPRESENTATION_CONTEXT ( 'NONE', 'WORKASPACE' ) );
#214 = UNCERTAINTY_MEASURE_WITH_UNIT (LENGTH_MEASURE( 1.000000000000000100E-005 ), #136, 'distance_accuracy_value', 'NONE');
#215 =( NAMED_UNIT ( * ) SI_UNIT ( $, .STERADIAN. ) SOLID_ANGLE_UNIT ( ) );
#216 =( NAMED_UNIT ( * ) PLANE_ANGLE_UNIT ( ) SI_UNIT ( $, .RADIAN. ) );
#217 =( GEOMETRIC_REPRESENTATION_CONTEXT ( 3 ) GLOBAL_UNCERTAINTY_ASSIGNED_CONTEXT ( ( #204 ) ) GLOBAL_UNIT_ASSIGNED_CONTEXT ( ( #206, #250, #205 ) ) REPRESENTATION_CONTEXT ( 'NONE', 'WORKASPACE' ) );
#218 = SURFACE_SIDE_STYLE ('',( #219 ) ) ;
#219 = SURFACE_STYLE_FILL_AREA ( #161 ) ;
#220 = COLOUR_RGB ( '',0.9568627450980391500, 0.9490196078431372100, 0.9607843137254902200 ) ;
#221 = FACE_OUTER_BOUND ( 'NONE', #42, .T. ) ;
#222 = PRESENTATION_LAYER_ASSIGNMENT (  '', '', ( #223 ) ) ;
#223 = STYLED_ITEM ( 'NONE', ( #224 ), #104 ) ;
#224 = PRESENTATION_STYLE_ASSIGNMENT (( #225 ) ) ;
#225 = SURFACE_STYLE_USAGE ( .BOTH. , #234 ) ;
#226 = DIRECTION ( 'NONE',  ( -0.0000000000000000000, -0.0000000000000000000, 1.000000000000000000 ) ) ;
#227 = MECHANICAL_DESIGN_GEOMETRIC_PRESENTATION_REPRESENTATION (  '', ( #151 ), #248 ) ;
#228 = PRESENTATION_LAYER_ASSIGNMENT (  '', '', ( #151 ) ) ;
#229 = AXIS2_PLACEMENT_3D ( 'NONE', #199, #226, #171 ) ;
#230 = DIRECTION ( 'NONE',  ( 1.000000000000000000, 0.0000000000000000000, 0.0000000000000000000 ) ) ;
#231 = DIRECTION ( 'NONE',  ( -0.0000000000000000000, -0.0000000000000000000, 1.000000000000000000 ) ) ;
#232 = CARTESIAN_POINT ( 'NONE',  ( 0.0000000000000000000, 0.0000000000000000000, 0.7133109095837425500 ) ) ;
#233 = AXIS2_PLACEMENT_3D ( 'NONE', #232, #231, #230 ) ;
#234 = SURFACE_SIDE_STYLE ('',( #235 ) ) ;
#235 = SURFACE_STYLE_FILL_AREA ( #236 ) ;
#236 = FILL_AREA_STYLE ('',( #159 ) ) ;
#237 = DIRECTION ( 'NONE',  ( -0.0000000000000000000, -0.0000000000000000000, 1.000000000000000000 ) ) ;
#238 = VECTOR ( 'NONE', #237, 1000.000000000000000 ) ;
#239 = CARTESIAN_POINT ( 'NONE',  ( 25.39999999999999900, 0.0000000000000000000, 4.308132045400366600 ) ) ;
#240 = DIRECTION ( 'NONE',  ( -0.0000000000000000000, -0.0000000000000000000, 1.000000000000000000 ) ) ;
#241 = VECTOR ( 'NONE', #240, 1000.000000000000000 ) ;
#242 = CARTESIAN_POINT ( 'NONE',  ( -25.39999999999999900, 3.110500138708838200E-015, 4.308132045400366600 ) ) ;
#243 = LINE ( 'NONE', #242, #241 ) ;
#244 = DIRECTION ( 'NONE',  ( 1.000000000000000000, 0.0000000000000000000, 0.0000000000000000000 ) ) ;
#245 = DIRECTION ( 'NONE',  ( -0.0000000000000000000, -0.0000000000000000000, 1.000000000000000000 ) ) ;
#246 = CARTESIAN_POINT ( 'NONE',  ( 0.0000000000000000000, 0.0000000000000000000, 4.308132045400366600 ) ) ;
#247 = AXIS2_PLACEMENT_3D ( 'NONE', #246, #245, #244 ) ;
#248 =( GEOMETRIC_REPRESENTATION_CONTEXT ( 3 ) GLOBAL_UNCERTAINTY_ASSIGNED_CONTEXT ( ( #173 ) ) GLOBAL_UNIT_ASSIGNED_CONTEXT ( ( #187, #194, #200 ) ) REPRESENTATION_CONTEXT ( 'NONE', 'WORKASPACE' ) );
#249 = AXIS2_PLACEMENT_3D ( 'NONE', #169, #170, #172 ) ;
#250 =( NAMED_UNIT ( * ) PLANE_ANGLE_UNIT ( ) SI_UNIT ( $, .RADIAN. ) );
#251 = FILL_AREA_STYLE_COLOUR ( '', #185 ) ;
#252 = PRODUCT ( '3277-E0W', '3277-E0W', '', ( #253 ) ) ;
#253 = PRODUCT_CONTEXT ( 'NONE', #255, 'mechanical' ) ;
#254 = APPLICATION_PROTOCOL_DEFINITION ( 'draft international standard', 'automotive_design', 1998, #255 ) ;
#255 = APPLICATION_CONTEXT ( 'automotive_design' ) ;
#256 = SHAPE_DEFINITION_REPRESENTATION ( #258, #209 ) ;
#257 = PRODUCT_RELATED_PRODUCT_CATEGORY ( 'part', '', ( #252 ) ) ;
#258 = PRODUCT_DEFINITION_SHAPE ( 'NONE', 'NONE',  #259 ) ;
#259 = PRODUCT_DEFINITION ( 'UNKNOWN', '', #261, #260 ) ;
#260 = PRODUCT_DEFINITION_CONTEXT ( 'detailed design', #1, 'design' ) ;
#261 = PRODUCT_DEFINITION_FORMATION_WITH_SPECIFIED_SOURCE ( 'ANY', '', #252, .NOT_KNOWN. ) ;
ENDSEC;
END-ISO-10303-21;
