ISO-10303-21;
HEADER;
FILE_DESCRIPTION (( 'STEP AP203' ),
    '1' );
FILE_NAME ('Web Model 48854_14827.step',
    '2020-10-07T17:32:45',
    ( '' ),
    ( '' ),
    'SwSTEP 2.0',
    'SolidWorks 2018',
    '' );
FILE_SCHEMA (( 'CONFIG_CONTROL_DESIGN' ));
ENDSEC;

DATA;
#1 = DATE_AND_TIME ( #106, #162 ) ;
#2 = ADVANCED_FACE ( 'NONE', ( #32 ), #42, .T. ) ;
#3 = DATE_AND_TIME ( #154, #121 ) ;
#4 = CARTESIAN_POINT ( 'NONE',  ( -7.500000000000000000, 0.0000000000000000000, -1.000000000000000000 ) ) ;
#5 = FACE_OUTER_BOUND ( 'NONE', #91, .T. ) ;
#6 = CARTESIAN_POINT ( 'NONE',  ( 0.0000000000000000000, 0.0000000000000000000, -1.000000000000000000 ) ) ;
#7 = DIRECTION ( 'NONE',  ( 0.0000000000000000000, 0.0000000000000000000, 1.000000000000000000 ) ) ;
#8 = DIRECTION ( 'NONE',  ( 1.000000000000000000, 0.0000000000000000000, 0.0000000000000000000 ) ) ;
#9 = PERSON_AND_ORGANIZATION ( #155, #132 ) ;
#10 = PERSON_AND_ORGANIZATION_ROLE ( 'creator' ) ;
#11 = DATE_AND_TIME ( #83, #16 ) ;
#12 = EDGE_CURVE ( 'NONE', #78, #21, #140, .T. ) ;
#13 = EDGE_LOOP ( 'NONE', ( #109, #130, #99, #159 ) ) ;
#14 = CC_DESIGN_DATE_AND_TIME_ASSIGNMENT ( #115, #77, ( #46 ) ) ;
#15 = PERSON_AND_ORGANIZATION ( #155, #132 ) ;
#16 = LOCAL_TIME ( 13, 32, 45.00000000000000000, #18 ) ;
#17 = PERSON_AND_ORGANIZATION ( #155, #132 ) ;
#18 = COORDINATED_UNIVERSAL_TIME_OFFSET ( 5, 0, .BEHIND. ) ;
#19 = CC_DESIGN_PERSON_AND_ORGANIZATION_ASSIGNMENT ( #120, #170, ( #46 ) ) ;
#20 = APPLICATION_PROTOCOL_DEFINITION ( 'international standard', 'config_control_design', 1994, #116 ) ;
#21 = VERTEX_POINT ( 'NONE', #4 ) ;
#22 = CARTESIAN_POINT ( 'NONE',  ( 0.0000000000000000000, 0.0000000000000000000, 1.000000000000000000 ) ) ;
#23 = VECTOR ( 'NONE', #136, 1000.000000000000000 ) ;
#24 = APPROVAL_PERSON_ORGANIZATION ( #58, #107, #153 ) ;
#25 = VERTEX_POINT ( 'NONE', #30 ) ;
#26 = EDGE_CURVE ( 'NONE', #25, #21, #168, .T. ) ;
#27 = DIRECTION ( 'NONE',  ( 1.000000000000000000, 0.0000000000000000000, -0.0000000000000000000 ) ) ;
#28 = ADVANCED_FACE ( 'NONE', ( #5 ), #54, .T. ) ;
#29 = CC_DESIGN_DATE_AND_TIME_ASSIGNMENT ( #31, #137, ( #144 ) ) ;
#30 = CARTESIAN_POINT ( 'NONE',  ( 7.500000000000000000, 9.184850993605147944E-16, -1.000000000000000000 ) ) ;
#31 = DATE_AND_TIME ( #133, #69 ) ;
#32 = FACE_OUTER_BOUND ( 'NONE', #104, .T. ) ;
#33 = AXIS2_PLACEMENT_3D ( 'NONE', #111, #158, #27 ) ;
#34 = DIRECTION ( 'NONE',  ( 0.0000000000000000000, 0.0000000000000000000, 1.000000000000000000 ) ) ;
#35 = DIRECTION ( 'NONE',  ( -1.000000000000000000, 0.0000000000000000000, 0.0000000000000000000 ) ) ;
#36 = DIRECTION ( 'NONE',  ( 1.000000000000000000, 0.0000000000000000000, -0.0000000000000000000 ) ) ;
#37 = CARTESIAN_POINT ( 'NONE',  ( 0.0000000000000000000, 0.0000000000000000000, -1.000000000000000000 ) ) ;
#38 = CALENDAR_DATE ( 2020, 7, 10 ) ;
#39 = CIRCLE ( 'NONE', #138, 7.500000000000000000 ) ;
#40 = EDGE_CURVE ( 'NONE', #125, #25, #149, .T. ) ;
#41 = MANIFOLD_SOLID_BREP ( 'Boss-Extrude1', #161 ) ;
#42 = PLANE ( 'NONE',  #33 ) ;
#43 = COORDINATED_UNIVERSAL_TIME_OFFSET ( 5, 0, .BEHIND. ) ;
#44 = ORIENTED_EDGE ( 'NONE', *, *, #135, .T. ) ;
#45 = CARTESIAN_POINT ( 'NONE',  ( 7.500000000000000000, 9.184850993605147944E-16, 1.000000000000000000 ) ) ;
#46 = PRODUCT_DEFINITION ( 'UNKNOWN', '', #110, #165 ) ;
#47 = APPROVAL_DATE_TIME ( #1, #143 ) ;
#48 = PERSON_AND_ORGANIZATION_ROLE ( 'classification_officer' ) ;
#49 = DIRECTION ( 'NONE',  ( 1.000000000000000000, 0.0000000000000000000, 0.0000000000000000000 ) ) ;
#50 = CARTESIAN_POINT ( 'NONE',  ( 0.0000000000000000000, 0.0000000000000000000, 1.000000000000000000 ) ) ;
#51 = CC_DESIGN_PERSON_AND_ORGANIZATION_ASSIGNMENT ( #17, #10, ( #110 ) ) ;
#52 = CC_DESIGN_APPROVAL ( #85, ( #144 ) ) ;
#53 = APPROVAL_PERSON_ORGANIZATION ( #118, #143, #172 ) ;
#54 = CYLINDRICAL_SURFACE ( 'NONE', #70, 7.500000000000000000 ) ;
#55 = EDGE_LOOP ( 'NONE', ( #123, #131 ) ) ;
#56 = CIRCLE ( 'NONE', #127, 7.500000000000000000 ) ;
#57 = ORIENTED_EDGE ( 'NONE', *, *, #92, .T. ) ;
#58 = PERSON_AND_ORGANIZATION ( #155, #132 ) ;
#59 = APPROVAL_STATUS ( 'not_yet_approved' ) ;
#60 =( NAMED_UNIT ( * ) PLANE_ANGLE_UNIT ( ) SI_UNIT ( $, .RADIAN. ) );
#61 = CARTESIAN_POINT ( 'NONE',  ( 7.500000000000000000, 9.184850993605147944E-16, 1.000000000000000000 ) ) ;
#62 = PERSON_AND_ORGANIZATION_ROLE ( 'design_owner' ) ;
#63 = APPROVAL_ROLE ( '' ) ;
#64 = PRODUCT ( 'Web Model 48854_14827', 'Web Model 48854_14827', '', ( #100 ) ) ;
#65 = LOCAL_TIME ( 13, 32, 45.00000000000000000, #124 ) ;
#66 = PERSON_AND_ORGANIZATION ( #155, #132 ) ;
#67 = AXIS2_PLACEMENT_3D ( 'NONE', #117, #139, #36 ) ;
#68 = EDGE_CURVE ( 'NONE', #21, #25, #56, .T. ) ;
#69 = LOCAL_TIME ( 13, 32, 45.00000000000000000, #84 ) ;
#70 = AXIS2_PLACEMENT_3D ( 'NONE', #88, #171, #86 ) ;
#71 = DIRECTION ( 'NONE',  ( 1.000000000000000000, 0.0000000000000000000, 0.0000000000000000000 ) ) ;
#72 = COORDINATED_UNIVERSAL_TIME_OFFSET ( 5, 0, .BEHIND. ) ;
#73 = APPLICATION_PROTOCOL_DEFINITION ( 'international standard', 'config_control_design', 1994, #129 ) ;
#74 = CC_DESIGN_PERSON_AND_ORGANIZATION_ASSIGNMENT ( #9, #105, ( #110 ) ) ;
#75 = DIRECTION ( 'NONE',  ( 1.000000000000000000, 0.0000000000000000000, 0.0000000000000000000 ) ) ;
#76 =( NAMED_UNIT ( * ) SI_UNIT ( $, .STERADIAN. ) SOLID_ANGLE_UNIT ( ) );
#77 = DATE_TIME_ROLE ( 'creation_date' ) ;
#78 = VERTEX_POINT ( 'NONE', #103 ) ;
#79 = CC_DESIGN_APPROVAL ( #107, ( #46 ) ) ;
#80 = SHAPE_DEFINITION_REPRESENTATION ( #156, #113 ) ;
#81 = UNCERTAINTY_MEASURE_WITH_UNIT (LENGTH_MEASURE( 1.000000000000000082E-05 ), #128, 'distance_accuracy_value', 'NONE');
#82 = AXIS2_PLACEMENT_3D ( 'NONE', #98, #7, #8 ) ;
#83 = CALENDAR_DATE ( 2020, 7, 10 ) ;
#84 = COORDINATED_UNIVERSAL_TIME_OFFSET ( 5, 0, .BEHIND. ) ;
#85 = APPROVAL ( #59, 'UNSPECIFIED' ) ;
#86 = DIRECTION ( 'NONE',  ( -1.000000000000000000, 0.0000000000000000000, 0.0000000000000000000 ) ) ;
#87 = DIRECTION ( 'NONE',  ( 0.0000000000000000000, 0.0000000000000000000, 1.000000000000000000 ) ) ;
#88 = CARTESIAN_POINT ( 'NONE',  ( 0.0000000000000000000, 0.0000000000000000000, 1.000000000000000000 ) ) ;
#89 = APPROVAL_STATUS ( 'not_yet_approved' ) ;
#90 = CC_DESIGN_APPROVAL ( #143, ( #110 ) ) ;
#91 = EDGE_LOOP ( 'NONE', ( #175, #174, #160, #142 ) ) ;
#92 = EDGE_CURVE ( 'NONE', #125, #78, #157, .T. ) ;
#93 = ADVANCED_FACE ( 'NONE', ( #96 ), #146, .F. ) ;
#94 = PERSON_AND_ORGANIZATION ( #155, #132 ) ;
#95 = APPROVAL_PERSON_ORGANIZATION ( #66, #85, #63 ) ;
#96 = FACE_OUTER_BOUND ( 'NONE', #55, .T. ) ;
#97 = CC_DESIGN_PERSON_AND_ORGANIZATION_ASSIGNMENT ( #94, #62, ( #64 ) ) ;
#98 = CARTESIAN_POINT ( 'NONE',  ( 0.0000000000000000000, 0.0000000000000000000, 1.000000000000000000 ) ) ;
#99 = ORIENTED_EDGE ( 'NONE', *, *, #12, .T. ) ;
#100 = MECHANICAL_CONTEXT ( 'NONE', #129, 'mechanical' ) ;
#101 = CC_DESIGN_PERSON_AND_ORGANIZATION_ASSIGNMENT ( #15, #48, ( #144 ) ) ;
#102 = DIRECTION ( 'NONE',  ( -0.0000000000000000000, -0.0000000000000000000, -1.000000000000000000 ) ) ;
#103 = CARTESIAN_POINT ( 'NONE',  ( -7.500000000000000000, 0.0000000000000000000, 1.000000000000000000 ) ) ;
#104 = EDGE_LOOP ( 'NONE', ( #44, #57 ) ) ;
#105 = PERSON_AND_ORGANIZATION_ROLE ( 'design_supplier' ) ;
#106 = CALENDAR_DATE ( 2020, 7, 10 ) ;
#107 = APPROVAL ( #151, 'UNSPECIFIED' ) ;
#108 = APPROVAL_DATE_TIME ( #3, #85 ) ;
#109 = ORIENTED_EDGE ( 'NONE', *, *, #40, .F. ) ;
#110 = PRODUCT_DEFINITION_FORMATION_WITH_SPECIFIED_SOURCE ( 'ANY', '', #64, .NOT_KNOWN. ) ;
#111 = CARTESIAN_POINT ( 'NONE',  ( 0.0000000000000000000, 0.0000000000000000000, 1.000000000000000000 ) ) ;
#112 = AXIS2_PLACEMENT_3D ( 'NONE', #22, #150, #35 ) ;
#113 = ADVANCED_BREP_SHAPE_REPRESENTATION ( 'Web Model 48854_14827', ( #41, #173 ), #166 ) ;
#114 = SECURITY_CLASSIFICATION_LEVEL ( 'unclassified' ) ;
#115 = DATE_AND_TIME ( #38, #65 ) ;
#116 = APPLICATION_CONTEXT ( 'configuration controlled 3d designs of mechanical parts and assemblies' ) ;
#117 = CARTESIAN_POINT ( 'NONE',  ( 0.0000000000000000000, 0.0000000000000000000, -1.000000000000000000 ) ) ;
#118 = PERSON_AND_ORGANIZATION ( #155, #132 ) ;
#119 = CYLINDRICAL_SURFACE ( 'NONE', #112, 7.500000000000000000 ) ;
#120 = PERSON_AND_ORGANIZATION ( #155, #132 ) ;
#121 = LOCAL_TIME ( 13, 32, 45.00000000000000000, #43 ) ;
#122 = CC_DESIGN_SECURITY_CLASSIFICATION ( #144, ( #110 ) ) ;
#123 = ORIENTED_EDGE ( 'NONE', *, *, #68, .F. ) ;
#124 = COORDINATED_UNIVERSAL_TIME_OFFSET ( 5, 0, .BEHIND. ) ;
#125 = VERTEX_POINT ( 'NONE', #45 ) ;
#126 = DIRECTION ( 'NONE',  ( 1.000000000000000000, 0.0000000000000000000, 0.0000000000000000000 ) ) ;
#127 = AXIS2_PLACEMENT_3D ( 'NONE', #6, #141, #71 ) ;
#128 =( LENGTH_UNIT ( ) NAMED_UNIT ( * ) SI_UNIT ( .MILLI., .METRE. ) );
#129 = APPLICATION_CONTEXT ( 'configuration controlled 3d designs of mechanical parts and assemblies' ) ;
#130 = ORIENTED_EDGE ( 'NONE', *, *, #135, .F. ) ;
#131 = ORIENTED_EDGE ( 'NONE', *, *, #26, .F. ) ;
#132 = ORGANIZATION ( 'UNSPECIFIED', 'UNSPECIFIED', '' ) ;
#133 = CALENDAR_DATE ( 2020, 7, 10 ) ;
#134 = ADVANCED_FACE ( 'NONE', ( #148 ), #119, .T. ) ;
#135 = EDGE_CURVE ( 'NONE', #78, #125, #39, .T. ) ;
#136 = DIRECTION ( 'NONE',  ( -0.0000000000000000000, -0.0000000000000000000, -1.000000000000000000 ) ) ;
#137 = DATE_TIME_ROLE ( 'classification_date' ) ;
#138 = AXIS2_PLACEMENT_3D ( 'NONE', #50, #34, #126 ) ;
#139 = DIRECTION ( 'NONE',  ( 0.0000000000000000000, 0.0000000000000000000, 1.000000000000000000 ) ) ;
#140 = LINE ( 'NONE', #163, #23 ) ;
#141 = DIRECTION ( 'NONE',  ( 0.0000000000000000000, 0.0000000000000000000, 1.000000000000000000 ) ) ;
#142 = ORIENTED_EDGE ( 'NONE', *, *, #12, .F. ) ;
#143 = APPROVAL ( #89, 'UNSPECIFIED' ) ;
#144 = SECURITY_CLASSIFICATION ( '', '', #114 ) ;
#145 = APPROVAL_DATE_TIME ( #11, #107 ) ;
#146 = PLANE ( 'NONE',  #67 ) ;
#147 = AXIS2_PLACEMENT_3D ( 'NONE', #37, #164, #49 ) ;
#148 = FACE_OUTER_BOUND ( 'NONE', #13, .T. ) ;
#149 = LINE ( 'NONE', #61, #169 ) ;
#150 = DIRECTION ( 'NONE',  ( -0.0000000000000000000, -0.0000000000000000000, -1.000000000000000000 ) ) ;
#151 = APPROVAL_STATUS ( 'not_yet_approved' ) ;
#152 = PRODUCT_RELATED_PRODUCT_CATEGORY ( 'detail', '', ( #64 ) ) ;
#153 = APPROVAL_ROLE ( '' ) ;
#154 = CALENDAR_DATE ( 2020, 7, 10 ) ;
#155 = PERSON ( 'UNSPECIFIED', 'UNSPECIFIED', 'UNSPECIFIED', ('UNSPECIFIED'), ('UNSPECIFIED'), ('UNSPECIFIED') ) ;
#156 = PRODUCT_DEFINITION_SHAPE ( 'NONE', 'NONE',  #46 ) ;
#157 = CIRCLE ( 'NONE', #82, 7.500000000000000000 ) ;
#158 = DIRECTION ( 'NONE',  ( 0.0000000000000000000, 0.0000000000000000000, 1.000000000000000000 ) ) ;
#159 = ORIENTED_EDGE ( 'NONE', *, *, #68, .T. ) ;
#160 = ORIENTED_EDGE ( 'NONE', *, *, #26, .T. ) ;
#161 = CLOSED_SHELL ( 'NONE', ( #28, #134, #2, #93 ) ) ;
#162 = LOCAL_TIME ( 13, 32, 45.00000000000000000, #72 ) ;
#163 = CARTESIAN_POINT ( 'NONE',  ( -7.500000000000000000, 0.0000000000000000000, 1.000000000000000000 ) ) ;
#164 = DIRECTION ( 'NONE',  ( 0.0000000000000000000, 0.0000000000000000000, 1.000000000000000000 ) ) ;
#165 = DESIGN_CONTEXT ( 'detailed design', #116, 'design' ) ;
#166 =( GEOMETRIC_REPRESENTATION_CONTEXT ( 3 ) GLOBAL_UNCERTAINTY_ASSIGNED_CONTEXT ( ( #81 ) ) GLOBAL_UNIT_ASSIGNED_CONTEXT ( ( #128, #60, #76 ) ) REPRESENTATION_CONTEXT ( 'NONE', 'WORKASPACE' ) );
#167 = CARTESIAN_POINT ( 'NONE',  ( 0.0000000000000000000, 0.0000000000000000000, 0.0000000000000000000 ) ) ;
#168 = CIRCLE ( 'NONE', #147, 7.500000000000000000 ) ;
#169 = VECTOR ( 'NONE', #102, 1000.000000000000000 ) ;
#170 = PERSON_AND_ORGANIZATION_ROLE ( 'creator' ) ;
#171 = DIRECTION ( 'NONE',  ( -0.0000000000000000000, -0.0000000000000000000, -1.000000000000000000 ) ) ;
#172 = APPROVAL_ROLE ( '' ) ;
#173 = AXIS2_PLACEMENT_3D ( 'NONE', #167, #87, #75 ) ;
#174 = ORIENTED_EDGE ( 'NONE', *, *, #40, .T. ) ;
#175 = ORIENTED_EDGE ( 'NONE', *, *, #92, .F. ) ;
ENDSEC;
END-ISO-10303-21;
