ISO-10303-21;
HEADER;
FILE_DESCRIPTION (( 'STEP AP214' ),
    '1' );
FILE_NAME ('3240-E0W.STEP',
    '2009-12-21T16:55:07',
    ( ' ' ),
    ( ' ' ),
    'SwSTEP 2.0',
    'SolidWorks 2009',
    '' );
FILE_SCHEMA (( 'AUTOMOTIVE_DESIGN' ));
ENDSEC;

DATA;
#1 = CLOSED_SHELL ( 'NONE', ( #75, #202, #12, #20, #19 ) ) ;
#2 = ORIENTED_EDGE ( 'NONE', *, *, #9, .F. ) ;
#3 = ORIENTED_EDGE ( 'NONE', *, *, #4, .T. ) ;
#4 = EDGE_CURVE ( 'NONE', #7, #44, #37, .T. ) ;
#5 = ORIENTED_EDGE ( 'NONE', *, *, #11, .T. ) ;
#6 = ORIENTED_EDGE ( 'NONE', *, *, #198, .T. ) ;
#7 = VERTEX_POINT ( 'NONE', #175 ) ;
#8 = ORIENTED_EDGE ( 'NONE', *, *, #9, .T. ) ;
#9 = EDGE_CURVE ( 'NONE', #7, #16, #173, .T. ) ;
#10 = ORIENTED_EDGE ( 'NONE', *, *, #11, .F. ) ;
#11 = EDGE_CURVE ( 'NONE', #38, #16, #141, .T. ) ;
#12 = ADVANCED_FACE ( 'NONE', ( #142 ), #170, .T. ) ;
#13 = EDGE_LOOP ( 'NONE', ( #2, #3, #112, #5 ) ) ;
#14 = EDGE_CURVE ( 'NONE', #196, #7, #169, .T. ) ;
#15 = ORIENTED_EDGE ( 'NONE', *, *, #14, .T. ) ;
#16 = VERTEX_POINT ( 'NONE', #160 ) ;
#17 = ORIENTED_EDGE ( 'NONE', *, *, #4, .F. ) ;
#18 = ORIENTED_EDGE ( 'NONE', *, *, #14, .F. ) ;
#19 = ADVANCED_FACE ( 'NONE', ( #159 ), #135, .F. ) ;
#20 = ADVANCED_FACE ( 'NONE', ( #133 ), #85, .T. ) ;
#21 = EDGE_CURVE ( 'NONE', #22, #23, #192, .T. ) ;
#22 = VERTEX_POINT ( 'NONE', #187 ) ;
#23 = VERTEX_POINT ( 'NONE', #186 ) ;
#24 = ORIENTED_EDGE ( 'NONE', *, *, #195, .T. ) ;
#25 = PRESENTATION_STYLE_ASSIGNMENT (( #26 ) ) ;
#26 = SURFACE_STYLE_USAGE ( .BOTH. , #27 ) ;
#27 = SURFACE_SIDE_STYLE ('',( #28 ) ) ;
#28 = SURFACE_STYLE_FILL_AREA ( #29 ) ;
#29 = FILL_AREA_STYLE ('',( #30 ) ) ;
#30 = FILL_AREA_STYLE_COLOUR ( '', #31 ) ;
#31 = COLOUR_RGB ( '',0.9568627450980391500, 0.9490196078431372100, 0.9607843137254902200 ) ;
#32 = DIRECTION ( 'NONE',  ( 0.0000000000000000000, 0.0000000000000000000, -1.000000000000000000 ) ) ;
#33 = DIRECTION ( 'NONE',  ( 1.000000000000000000, 0.0000000000000000000, 0.0000000000000000000 ) ) ;
#34 = DIRECTION ( 'NONE',  ( -0.0000000000000000000, -0.0000000000000000000, 1.000000000000000000 ) ) ;
#35 = CARTESIAN_POINT ( 'NONE',  ( 0.0000000000000000000, 0.0000000000000000000, 0.7020200657404792600 ) ) ;
#36 = AXIS2_PLACEMENT_3D ( 'NONE', #35, #34, #176 ) ;
#37 = CIRCLE ( 'NONE', #36, 6.350000000000002300 ) ;
#38 = VERTEX_POINT ( 'NONE', #110 ) ;
#39 = ORIENTED_EDGE ( 'NONE', *, *, #195, .F. ) ;
#40 = ORIENTED_EDGE ( 'NONE', *, *, #41, .T. ) ;
#41 = EDGE_CURVE ( 'NONE', #23, #22, #109, .T. ) ;
#42 = ORIENTED_EDGE ( 'NONE', *, *, #43, .F. ) ;
#43 = EDGE_CURVE ( 'NONE', #44, #38, #103, .T. ) ;
#44 = VERTEX_POINT ( 'NONE', #98 ) ;
#45 = UNCERTAINTY_MEASURE_WITH_UNIT (LENGTH_MEASURE( 1.000000000000000100E-005 ), #88, 'distance_accuracy_value', 'NONE');
#46 =( NAMED_UNIT ( * ) SI_UNIT ( $, .STERADIAN. ) SOLID_ANGLE_UNIT ( ) );
#47 =( NAMED_UNIT ( * ) PLANE_ANGLE_UNIT ( ) SI_UNIT ( $, .RADIAN. ) );
#48 = FILL_AREA_STYLE ('',( #57 ) ) ;
#49 = SURFACE_SIDE_STYLE ('',( #50 ) ) ;
#50 = SURFACE_STYLE_FILL_AREA ( #48 ) ;
#51 = COLOUR_RGB ( '',0.9568627450980391500, 0.9490196078431372100, 0.9607843137254902200 ) ;
#52 = FACE_OUTER_BOUND ( 'NONE', #73, .T. ) ;
#53 = DIRECTION ( 'NONE',  ( -0.0000000000000000000, -0.0000000000000000000, 1.000000000000000000 ) ) ;
#54 = VECTOR ( 'NONE', #53, 1000.000000000000000 ) ;
#55 = CARTESIAN_POINT ( 'NONE',  ( 6.350000000000001400, 0.0000000000000000000, 4.308132045400366600 ) ) ;
#56 = LINE ( 'NONE', #55, #54 ) ;
#57 = FILL_AREA_STYLE_COLOUR ( '', #51 ) ;
#58 = DIRECTION ( 'NONE',  ( 1.000000000000000000, 0.0000000000000000000, 0.0000000000000000000 ) ) ;
#59 = DIRECTION ( 'NONE',  ( -0.0000000000000000000, -0.0000000000000000000, 1.000000000000000000 ) ) ;
#60 = CARTESIAN_POINT ( 'NONE',  ( 0.0000000000000000000, 0.0000000000000000000, 0.7020200657404792600 ) ) ;
#61 = AXIS2_PLACEMENT_3D ( 'NONE', #60, #59, #58 ) ;
#62 = CIRCLE ( 'NONE', #61, 6.350000000000002300 ) ;
#63 = CARTESIAN_POINT ( 'NONE',  ( -6.350000000000003200, 7.776250346772099300E-016, 0.7020200657404792600 ) ) ;
#64 = DIRECTION ( 'NONE',  ( -0.0000000000000000000, -0.0000000000000000000, 1.000000000000000000 ) ) ;
#65 = VECTOR ( 'NONE', #64, 1000.000000000000000 ) ;
#66 = CARTESIAN_POINT ( 'NONE',  ( -6.350000000000001400, 7.776250346772097400E-016, 4.308132045400366600 ) ) ;
#67 = LINE ( 'NONE', #66, #65 ) ;
#68 = DIRECTION ( 'NONE',  ( 1.000000000000000000, 0.0000000000000000000, 0.0000000000000000000 ) ) ;
#69 = DIRECTION ( 'NONE',  ( -0.0000000000000000000, -0.0000000000000000000, 1.000000000000000000 ) ) ;
#70 = CARTESIAN_POINT ( 'NONE',  ( 0.0000000000000000000, 0.0000000000000000000, 4.308132045400366600 ) ) ;
#71 = AXIS2_PLACEMENT_3D ( 'NONE', #70, #69, #68 ) ;
#72 = CYLINDRICAL_SURFACE ( 'NONE', #71, 6.350000000000001400 ) ;
#73 = EDGE_LOOP ( 'NONE', ( #6, #15, #8, #10 ) ) ;
#74 = MANIFOLD_SOLID_BREP ( 'NONE', #1 ) ;
#75 = ADVANCED_FACE ( 'NONE', ( #218 ), #72, .T. ) ;
#76 = EDGE_LOOP ( 'NONE', ( #77, #24, #197, #42, #200 ) ) ;
#77 = ORIENTED_EDGE ( 'NONE', *, *, #21, .T. ) ;
#78 =( NAMED_UNIT ( * ) PLANE_ANGLE_UNIT ( ) SI_UNIT ( $, .RADIAN. ) );
#79 =( LENGTH_UNIT ( ) NAMED_UNIT ( * ) SI_UNIT ( .MILLI., .METRE. ) );
#80 = MECHANICAL_DESIGN_GEOMETRIC_PRESENTATION_REPRESENTATION (  '', ( #82 ), #171 ) ;
#81 = PRESENTATION_LAYER_ASSIGNMENT (  '', '', ( #82 ) ) ;
#82 = STYLED_ITEM ( 'NONE', ( #25 ), #12 ) ;
#83 = CARTESIAN_POINT ( 'NONE',  ( 0.0000000000000000000, 0.0000000000000000000, 4.308132045400366600 ) ) ;
#84 = AXIS2_PLACEMENT_3D ( 'NONE', #83, #194, #193 ) ;
#85 = CYLINDRICAL_SURFACE ( 'NONE', #84, 6.350000000000001400 ) ;
#86 =( GEOMETRIC_REPRESENTATION_CONTEXT ( 3 ) GLOBAL_UNCERTAINTY_ASSIGNED_CONTEXT ( ( #87 ) ) GLOBAL_UNIT_ASSIGNED_CONTEXT ( ( #119, #118, #117 ) ) REPRESENTATION_CONTEXT ( 'NONE', 'WORKASPACE' ) );
#87 = UNCERTAINTY_MEASURE_WITH_UNIT (LENGTH_MEASURE( 1.000000000000000100E-005 ), #119, 'distance_accuracy_value', 'NONE');
#88 =( LENGTH_UNIT ( ) NAMED_UNIT ( * ) SI_UNIT ( .MILLI., .METRE. ) );
#89 = MECHANICAL_DESIGN_GEOMETRIC_PRESENTATION_REPRESENTATION (  '', ( #91 ), #219 ) ;
#90 = PRESENTATION_LAYER_ASSIGNMENT (  '', '', ( #91 ) ) ;
#91 = STYLED_ITEM ( 'NONE', ( #92 ), #74 ) ;
#92 = PRESENTATION_STYLE_ASSIGNMENT (( #93 ) ) ;
#93 = SURFACE_STYLE_USAGE ( .BOTH. , #94 ) ;
#94 = SURFACE_SIDE_STYLE ('',( #95 ) ) ;
#95 = SURFACE_STYLE_FILL_AREA ( #96 ) ;
#96 = FILL_AREA_STYLE ('',( #104 ) ) ;
#97 = COLOUR_RGB ( '',0.7960784313725489700, 0.8235294117647058400, 0.9372549019607843100 ) ;
#98 = CARTESIAN_POINT ( 'NONE',  ( 6.350000000000003200, 0.0000000000000000000, 0.7020200657404792600 ) ) ;
#99 = DIRECTION ( 'NONE',  ( 1.000000000000000000, 0.0000000000000000000, 0.0000000000000000000 ) ) ;
#100 = DIRECTION ( 'NONE',  ( -0.0000000000000000000, -0.0000000000000000000, 1.000000000000000000 ) ) ;
#101 = CARTESIAN_POINT ( 'NONE',  ( 0.0000000000000000000, 0.0000000000000000000, 0.7020200657404792600 ) ) ;
#102 = AXIS2_PLACEMENT_3D ( 'NONE', #101, #100, #99 ) ;
#103 = CIRCLE ( 'NONE', #102, 6.350000000000002300 ) ;
#104 = FILL_AREA_STYLE_COLOUR ( '', #97 ) ;
#105 = DIRECTION ( 'NONE',  ( 1.000000000000000000, 0.0000000000000000000, 0.0000000000000000000 ) ) ;
#106 = DIRECTION ( 'NONE',  ( -0.0000000000000000000, -0.0000000000000000000, 1.000000000000000000 ) ) ;
#107 = CARTESIAN_POINT ( 'NONE',  ( 0.0000000000000000000, 0.0000000000000000000, -1.095000000000000400 ) ) ;
#108 = AXIS2_PLACEMENT_3D ( 'NONE', #107, #106, #105 ) ;
#109 = CIRCLE ( 'NONE', #108, 6.349999999999999600 ) ;
#110 = CARTESIAN_POINT ( 'NONE',  ( 0.0000000000000000000, 6.349999999999997900, 0.7020200657404797000 ) ) ;
#111 = ORIENTED_EDGE ( 'NONE', *, *, #201, .T. ) ;
#112 = ORIENTED_EDGE ( 'NONE', *, *, #43, .T. ) ;
#113 =( GEOMETRIC_REPRESENTATION_CONTEXT ( 3 ) GLOBAL_UNCERTAINTY_ASSIGNED_CONTEXT ( ( #114 ) ) GLOBAL_UNIT_ASSIGNED_CONTEXT ( ( #180, #179, #115 ) ) REPRESENTATION_CONTEXT ( 'NONE', 'WORKASPACE' ) );
#114 = UNCERTAINTY_MEASURE_WITH_UNIT (LENGTH_MEASURE( 1.000000000000000100E-005 ), #180, 'distance_accuracy_value', 'NONE');
#115 =( NAMED_UNIT ( * ) SI_UNIT ( $, .STERADIAN. ) SOLID_ANGLE_UNIT ( ) );
#116 = EDGE_LOOP ( 'NONE', ( #39, #40, #111, #17, #18 ) ) ;
#117 =( NAMED_UNIT ( * ) SI_UNIT ( $, .STERADIAN. ) SOLID_ANGLE_UNIT ( ) );
#118 =( NAMED_UNIT ( * ) PLANE_ANGLE_UNIT ( ) SI_UNIT ( $, .RADIAN. ) );
#119 =( LENGTH_UNIT ( ) NAMED_UNIT ( * ) SI_UNIT ( .MILLI., .METRE. ) );
#120 = MECHANICAL_DESIGN_GEOMETRIC_PRESENTATION_REPRESENTATION (  '', ( #122 ), #86 ) ;
#121 = PRESENTATION_LAYER_ASSIGNMENT (  '', '', ( #122 ) ) ;
#122 = STYLED_ITEM ( 'NONE', ( #123 ), #20 ) ;
#123 = PRESENTATION_STYLE_ASSIGNMENT (( #124 ) ) ;
#124 = SURFACE_STYLE_USAGE ( .BOTH. , #125 ) ;
#125 = SURFACE_SIDE_STYLE ('',( #126 ) ) ;
#126 = SURFACE_STYLE_FILL_AREA ( #127 ) ;
#127 = FILL_AREA_STYLE ('',( #134 ) ) ;
#128 = COLOUR_RGB ( '',0.9568627450980391500, 0.9490196078431372100, 0.9607843137254902200 ) ;
#129 = DIRECTION ( 'NONE',  ( 1.000000000000000000, 0.0000000000000000000, 0.0000000000000000000 ) ) ;
#130 = DIRECTION ( 'NONE',  ( 0.0000000000000000000, -0.0000000000000000000, 1.000000000000000000 ) ) ;
#131 = CARTESIAN_POINT ( 'NONE',  ( 0.0000000000000000000, 4.022964735199055400E-016, -1.095000000000000000 ) ) ;
#132 = AXIS2_PLACEMENT_3D ( 'NONE', #131, #130, #129 ) ;
#133 = FACE_OUTER_BOUND ( 'NONE', #116, .T. ) ;
#134 = FILL_AREA_STYLE_COLOUR ( '', #128 ) ;
#135 = PLANE ( 'NONE',  #132 ) ;
#136 =( GEOMETRIC_REPRESENTATION_CONTEXT ( 3 ) GLOBAL_UNCERTAINTY_ASSIGNED_CONTEXT ( ( #137 ) ) GLOBAL_UNIT_ASSIGNED_CONTEXT ( ( #148, #147, #146 ) ) REPRESENTATION_CONTEXT ( 'NONE', 'WORKASPACE' ) );
#137 = UNCERTAINTY_MEASURE_WITH_UNIT (LENGTH_MEASURE( 1.000000000000000100E-005 ), #148, 'distance_accuracy_value', 'NONE');
#138 = ORIENTED_EDGE ( 'NONE', *, *, #41, .F. ) ;
#139 = ORIENTED_EDGE ( 'NONE', *, *, #21, .F. ) ;
#140 = AXIS2_PLACEMENT_3D ( 'NONE', #174, #33, #32 ) ;
#141 = CIRCLE ( 'NONE', #140, 51.50000000000000000 ) ;
#142 = FACE_OUTER_BOUND ( 'NONE', #13, .T. ) ;
#143 = DIRECTION ( 'NONE',  ( -1.224606353822377300E-016, -1.000000000000000000, 0.0000000000000000000 ) ) ;
#144 = DIRECTION ( 'NONE',  ( -1.000000000000000000, 1.224606353822377300E-016, 0.0000000000000000000 ) ) ;
#145 = CARTESIAN_POINT ( 'NONE',  ( 0.0000000000000000000, 0.0000000000000000000, -50.40500000000000100 ) ) ;
#146 =( NAMED_UNIT ( * ) SI_UNIT ( $, .STERADIAN. ) SOLID_ANGLE_UNIT ( ) );
#147 =( NAMED_UNIT ( * ) PLANE_ANGLE_UNIT ( ) SI_UNIT ( $, .RADIAN. ) );
#148 =( LENGTH_UNIT ( ) NAMED_UNIT ( * ) SI_UNIT ( .MILLI., .METRE. ) );
#149 = MECHANICAL_DESIGN_GEOMETRIC_PRESENTATION_REPRESENTATION (  '', ( #151 ), #136 ) ;
#150 = PRESENTATION_LAYER_ASSIGNMENT (  '', '', ( #151 ) ) ;
#151 = STYLED_ITEM ( 'NONE', ( #152 ), #19 ) ;
#152 = PRESENTATION_STYLE_ASSIGNMENT (( #153 ) ) ;
#153 = SURFACE_STYLE_USAGE ( .BOTH. , #154 ) ;
#154 = SURFACE_SIDE_STYLE ('',( #155 ) ) ;
#155 = SURFACE_STYLE_FILL_AREA ( #156 ) ;
#156 = FILL_AREA_STYLE ('',( #157 ) ) ;
#157 = FILL_AREA_STYLE_COLOUR ( '', #158 ) ;
#158 = COLOUR_RGB ( '',0.9568627450980391500, 0.9490196078431372100, 0.9607843137254902200 ) ;
#159 = FACE_OUTER_BOUND ( 'NONE', #199, .T. ) ;
#160 = CARTESIAN_POINT ( 'NONE',  ( 0.0000000000000000000, 3.153361361092621400E-015, 1.094999999999998900 ) ) ;
#161 = DIRECTION ( 'NONE',  ( 1.000000000000000000, 0.0000000000000000000, 0.0000000000000000000 ) ) ;
#162 = DIRECTION ( 'NONE',  ( -0.0000000000000000000, -0.0000000000000000000, 1.000000000000000000 ) ) ;
#163 = CARTESIAN_POINT ( 'NONE',  ( 0.0000000000000000000, 0.0000000000000000000, 0.7020200657404792600 ) ) ;
#164 = AXIS2_PLACEMENT_3D ( 'NONE', #163, #162, #161 ) ;
#165 = DIRECTION ( 'NONE',  ( 0.0000000000000000000, 1.000000000000000000, 0.0000000000000000000 ) ) ;
#166 = DIRECTION ( 'NONE',  ( -1.000000000000000000, 0.0000000000000000000, 0.0000000000000000000 ) ) ;
#167 = CARTESIAN_POINT ( 'NONE',  ( 0.0000000000000000000, 0.0000000000000000000, -50.40500000000000100 ) ) ;
#168 = AXIS2_PLACEMENT_3D ( 'NONE', #167, #166, #165 ) ;
#169 = CIRCLE ( 'NONE', #164, 6.350000000000002300 ) ;
#170 = SPHERICAL_SURFACE ( 'NONE', #168, 51.50000000000000000 ) ;
#171 =( GEOMETRIC_REPRESENTATION_CONTEXT ( 3 ) GLOBAL_UNCERTAINTY_ASSIGNED_CONTEXT ( ( #177 ) ) GLOBAL_UNIT_ASSIGNED_CONTEXT ( ( #79, #78, #178 ) ) REPRESENTATION_CONTEXT ( 'NONE', 'WORKASPACE' ) );
#172 = AXIS2_PLACEMENT_3D ( 'NONE', #145, #144, #143 ) ;
#173 = CIRCLE ( 'NONE', #172, 51.50000000000000000 ) ;
#174 = CARTESIAN_POINT ( 'NONE',  ( 0.0000000000000000000, 0.0000000000000000000, -50.40500000000000100 ) ) ;
#175 = CARTESIAN_POINT ( 'NONE',  ( -7.776250346772093400E-016, -6.349999999999997900, 0.7020200657404797000 ) ) ;
#176 = DIRECTION ( 'NONE',  ( 1.000000000000000000, 0.0000000000000000000, 0.0000000000000000000 ) ) ;
#177 = UNCERTAINTY_MEASURE_WITH_UNIT (LENGTH_MEASURE( 1.000000000000000100E-005 ), #79, 'distance_accuracy_value', 'NONE');
#178 =( NAMED_UNIT ( * ) SI_UNIT ( $, .STERADIAN. ) SOLID_ANGLE_UNIT ( ) );
#179 =( NAMED_UNIT ( * ) PLANE_ANGLE_UNIT ( ) SI_UNIT ( $, .RADIAN. ) );
#180 =( LENGTH_UNIT ( ) NAMED_UNIT ( * ) SI_UNIT ( .MILLI., .METRE. ) );
#181 = MECHANICAL_DESIGN_GEOMETRIC_PRESENTATION_REPRESENTATION (  '', ( #183 ), #113 ) ;
#182 = PRESENTATION_LAYER_ASSIGNMENT (  '', '', ( #183 ) ) ;
#183 = STYLED_ITEM ( 'NONE', ( #184 ), #202 ) ;
#184 = PRESENTATION_STYLE_ASSIGNMENT (( #185 ) ) ;
#185 = SURFACE_STYLE_USAGE ( .BOTH. , #49 ) ;
#186 = CARTESIAN_POINT ( 'NONE',  ( -6.349999999999999600, 7.776250346772096400E-016, -1.095000000000000400 ) ) ;
#187 = CARTESIAN_POINT ( 'NONE',  ( 6.349999999999999600, 0.0000000000000000000, -1.095000000000000400 ) ) ;
#188 = DIRECTION ( 'NONE',  ( 1.000000000000000000, 0.0000000000000000000, 0.0000000000000000000 ) ) ;
#189 = DIRECTION ( 'NONE',  ( -0.0000000000000000000, -0.0000000000000000000, 1.000000000000000000 ) ) ;
#190 = CARTESIAN_POINT ( 'NONE',  ( 0.0000000000000000000, 0.0000000000000000000, -1.095000000000000400 ) ) ;
#191 = AXIS2_PLACEMENT_3D ( 'NONE', #190, #189, #188 ) ;
#192 = CIRCLE ( 'NONE', #191, 6.349999999999999600 ) ;
#193 = DIRECTION ( 'NONE',  ( 1.000000000000000000, 0.0000000000000000000, 0.0000000000000000000 ) ) ;
#194 = DIRECTION ( 'NONE',  ( -0.0000000000000000000, -0.0000000000000000000, 1.000000000000000000 ) ) ;
#195 = EDGE_CURVE ( 'NONE', #23, #196, #67, .T. ) ;
#196 = VERTEX_POINT ( 'NONE', #63 ) ;
#197 = ORIENTED_EDGE ( 'NONE', *, *, #198, .F. ) ;
#198 = EDGE_CURVE ( 'NONE', #38, #196, #62, .T. ) ;
#199 = EDGE_LOOP ( 'NONE', ( #139, #138 ) ) ;
#200 = ORIENTED_EDGE ( 'NONE', *, *, #201, .F. ) ;
#201 = EDGE_CURVE ( 'NONE', #22, #44, #56, .T. ) ;
#202 = ADVANCED_FACE ( 'NONE', ( #52 ), #246, .T. ) ;
#203 =( GEOMETRIC_REPRESENTATION_CONTEXT ( 3 ) GLOBAL_UNCERTAINTY_ASSIGNED_CONTEXT ( ( #204 ) ) GLOBAL_UNIT_ASSIGNED_CONTEXT ( ( #207, #206, #205 ) ) REPRESENTATION_CONTEXT ( 'NONE', 'WORKASPACE' ) );
#204 = UNCERTAINTY_MEASURE_WITH_UNIT (LENGTH_MEASURE( 1.000000000000000100E-005 ), #207, 'distance_accuracy_value', 'NONE');
#205 =( NAMED_UNIT ( * ) SI_UNIT ( $, .STERADIAN. ) SOLID_ANGLE_UNIT ( ) );
#206 =( NAMED_UNIT ( * ) PLANE_ANGLE_UNIT ( ) SI_UNIT ( $, .RADIAN. ) );
#207 =( LENGTH_UNIT ( ) NAMED_UNIT ( * ) SI_UNIT ( .MILLI., .METRE. ) );
#208 = MECHANICAL_DESIGN_GEOMETRIC_PRESENTATION_REPRESENTATION (  '', ( #210 ), #203 ) ;
#209 = PRESENTATION_LAYER_ASSIGNMENT (  '', '', ( #210 ) ) ;
#210 = STYLED_ITEM ( 'NONE', ( #211 ), #75 ) ;
#211 = PRESENTATION_STYLE_ASSIGNMENT (( #212 ) ) ;
#212 = SURFACE_STYLE_USAGE ( .BOTH. , #213 ) ;
#213 = SURFACE_SIDE_STYLE ('',( #214 ) ) ;
#214 = SURFACE_STYLE_FILL_AREA ( #215 ) ;
#215 = FILL_AREA_STYLE ('',( #216 ) ) ;
#216 = FILL_AREA_STYLE_COLOUR ( '', #217 ) ;
#217 = COLOUR_RGB ( '',0.9568627450980391500, 0.9490196078431372100, 0.9607843137254902200 ) ;
#218 = FACE_OUTER_BOUND ( 'NONE', #76, .T. ) ;
#219 =( GEOMETRIC_REPRESENTATION_CONTEXT ( 3 ) GLOBAL_UNCERTAINTY_ASSIGNED_CONTEXT ( ( #45 ) ) GLOBAL_UNIT_ASSIGNED_CONTEXT ( ( #88, #47, #46 ) ) REPRESENTATION_CONTEXT ( 'NONE', 'WORKASPACE' ) );
#220 =( GEOMETRIC_REPRESENTATION_CONTEXT ( 3 ) GLOBAL_UNCERTAINTY_ASSIGNED_CONTEXT ( ( #235 ) ) GLOBAL_UNIT_ASSIGNED_CONTEXT ( ( #254, #251, #236 ) ) REPRESENTATION_CONTEXT ( 'NONE', 'WORKASPACE' ) );
#221 = PRESENTATION_LAYER_ASSIGNMENT (  '', '', ( #222 ) ) ;
#222 = STYLED_ITEM ( 'NONE', ( #223 ), #228 ) ;
#223 = PRESENTATION_STYLE_ASSIGNMENT (( #224 ) ) ;
#224 = SURFACE_STYLE_USAGE ( .BOTH. , #225 ) ;
#225 = SURFACE_SIDE_STYLE ('',( #226 ) ) ;
#226 = SURFACE_STYLE_FILL_AREA ( #231 ) ;
#227 = APPLICATION_CONTEXT ( 'automotive_design' ) ;
#228 = ADVANCED_BREP_SHAPE_REPRESENTATION ( '3240-E0W', ( #74, #260 ), #250 ) ;
#229 = PRODUCT_DEFINITION_SHAPE ( 'NONE', 'NONE',  #238 ) ;
#230 = PRODUCT_RELATED_PRODUCT_CATEGORY ( 'part', '', ( #243 ) ) ;
#231 = FILL_AREA_STYLE ('',( #232 ) ) ;
#232 = FILL_AREA_STYLE_COLOUR ( '', #233 ) ;
#233 = COLOUR_RGB ( '',0.7960784313725489700, 0.8235294117647058400, 0.9372549019607843100 ) ;
#234 = UNCERTAINTY_MEASURE_WITH_UNIT (LENGTH_MEASURE( 1.000000000000000100E-005 ), #256, 'distance_accuracy_value', 'NONE');
#235 = UNCERTAINTY_MEASURE_WITH_UNIT (LENGTH_MEASURE( 1.000000000000000100E-005 ), #254, 'distance_accuracy_value', 'NONE');
#236 =( NAMED_UNIT ( * ) SI_UNIT ( $, .STERADIAN. ) SOLID_ANGLE_UNIT ( ) );
#237 = PRODUCT_DEFINITION_FORMATION_WITH_SPECIFIED_SOURCE ( 'ANY', '', #243, .NOT_KNOWN. ) ;
#238 = PRODUCT_DEFINITION ( 'UNKNOWN', '', #237, #239 ) ;
#239 = PRODUCT_DEFINITION_CONTEXT ( 'detailed design', #241, 'design' ) ;
#240 = APPLICATION_PROTOCOL_DEFINITION ( 'draft international standard', 'automotive_design', 1998, #241 ) ;
#241 = APPLICATION_CONTEXT ( 'automotive_design' ) ;
#242 = SHAPE_DEFINITION_REPRESENTATION ( #229, #228 ) ;
#243 = PRODUCT ( '3240-E0W', '3240-E0W', '', ( #244 ) ) ;
#244 = PRODUCT_CONTEXT ( 'NONE', #227, 'mechanical' ) ;
#245 = APPLICATION_PROTOCOL_DEFINITION ( 'draft international standard', 'automotive_design', 1998, #227 ) ;
#246 = SPHERICAL_SURFACE ( 'NONE', #252, 51.50000000000000000 ) ;
#247 =( NAMED_UNIT ( * ) PLANE_ANGLE_UNIT ( ) SI_UNIT ( $, .RADIAN. ) );
#248 = CARTESIAN_POINT ( 'NONE',  ( 0.0000000000000000000, 0.0000000000000000000, -50.40500000000000100 ) ) ;
#249 = DIRECTION ( 'NONE',  ( 0.0000000000000000000, 1.000000000000000000, 0.0000000000000000000 ) ) ;
#250 =( GEOMETRIC_REPRESENTATION_CONTEXT ( 3 ) GLOBAL_UNCERTAINTY_ASSIGNED_CONTEXT ( ( #234 ) ) GLOBAL_UNIT_ASSIGNED_CONTEXT ( ( #256, #247, #253 ) ) REPRESENTATION_CONTEXT ( 'NONE', 'WORKASPACE' ) );
#251 =( NAMED_UNIT ( * ) PLANE_ANGLE_UNIT ( ) SI_UNIT ( $, .RADIAN. ) );
#252 = AXIS2_PLACEMENT_3D ( 'NONE', #248, #257, #249 ) ;
#253 =( NAMED_UNIT ( * ) SI_UNIT ( $, .STERADIAN. ) SOLID_ANGLE_UNIT ( ) );
#254 =( LENGTH_UNIT ( ) NAMED_UNIT ( * ) SI_UNIT ( .MILLI., .METRE. ) );
#255 = MECHANICAL_DESIGN_GEOMETRIC_PRESENTATION_REPRESENTATION (  '', ( #222 ), #220 ) ;
#256 =( LENGTH_UNIT ( ) NAMED_UNIT ( * ) SI_UNIT ( .MILLI., .METRE. ) );
#257 = DIRECTION ( 'NONE',  ( -1.000000000000000000, 0.0000000000000000000, 0.0000000000000000000 ) ) ;
#258 = DIRECTION ( 'NONE',  ( 1.000000000000000000, 0.0000000000000000000, 0.0000000000000000000 ) ) ;
#259 = CARTESIAN_POINT ( 'NONE',  ( 0.0000000000000000000, 0.0000000000000000000, 0.0000000000000000000 ) ) ;
#260 = AXIS2_PLACEMENT_3D ( 'NONE', #259, #261, #258 ) ;
#261 = DIRECTION ( 'NONE',  ( 0.0000000000000000000, 0.0000000000000000000, 1.000000000000000000 ) ) ;
ENDSEC;
END-ISO-10303-21;
