ISO-10303-21;
HEADER;
FILE_DESCRIPTION (( 'STEP AP203' ),
    '1' );
FILE_NAME ('20130-E0W.STEP',
    '2019-07-16T11:10:49',
    ( '' ),
    ( '' ),
    'SwSTEP 2.0',
    'SolidWorks 2018',
    '' );
FILE_SCHEMA (( 'CONFIG_CONTROL_DESIGN' ));
ENDSEC;

DATA;
#1 = VECTOR ( 'NONE', #199, 100.0000000000000000 ) ;
#2 = CARTESIAN_POINT ( 'NONE',  ( 0.0000000000000000000, 3.998339745230043131E-16, -3.366999999999986670 ) ) ;
#3 = ORIENTED_EDGE ( 'NONE', *, *, #154, .F. ) ;
#4 = SECURITY_CLASSIFICATION ( '', '', #105 ) ;
#5 = PERSON_AND_ORGANIZATION ( #136, #62 ) ;
#6 = DIRECTION ( 'NONE',  ( 0.0000000000000000000, 1.000000000000000000, 3.173274651177083851E-16 ) ) ;
#7 = APPROVAL_PERSON_ORGANIZATION ( #5, #278, #79 ) ;
#8 = DIRECTION ( 'NONE',  ( 0.0000000000000000000, 1.000000000000000000, 3.073328992872300312E-16 ) ) ;
#9 = ORIENTED_EDGE ( 'NONE', *, *, #179, .F. ) ;
#10 = DIRECTION ( 'NONE',  ( 0.0000000000000000000, -1.000000000000000000, -3.073328992872300312E-16 ) ) ;
#11 = DIRECTION ( 'NONE',  ( -1.224646799147353207E-16, 1.000000000000000000, 0.0000000000000000000 ) ) ;
#12 = DATE_TIME_ROLE ( 'classification_date' ) ;
#13 = ORIENTED_EDGE ( 'NONE', *, *, #299, .T. ) ;
#14 = EDGE_CURVE ( 'NONE', #288, #249, #15, .T. ) ;
#15 = LINE ( 'NONE', #301, #1 ) ;
#16 = EDGE_CURVE ( 'NONE', #203, #76, #293, .T. ) ;
#17 = AXIS2_PLACEMENT_3D ( 'NONE', #267, #285, #137 ) ;
#18 = ORIENTED_EDGE ( 'NONE', *, *, #148, .F. ) ;
#19 = DIRECTION ( 'NONE',  ( -1.000000000000000000, 0.0000000000000000000, 0.0000000000000000000 ) ) ;
#20 = ADVANCED_FACE ( 'NONE', ( #153 ), #108, .T. ) ;
#21 = FACE_OUTER_BOUND ( 'NONE', #231, .T. ) ;
#22 = EDGE_LOOP ( 'NONE', ( #240, #147, #13 ) ) ;
#23 = CARTESIAN_POINT ( 'NONE',  ( 0.0000000000000000000, 0.6349999999999991207, 0.02542084157274809852 ) ) ;
#24 = CC_DESIGN_PERSON_AND_ORGANIZATION_ASSIGNMENT ( #251, #123, ( #115 ) ) ;
#25 = DATE_AND_TIME ( #196, #270 ) ;
#26 = FACE_OUTER_BOUND ( 'NONE', #155, .T. ) ;
#27 = ORIENTED_EDGE ( 'NONE', *, *, #294, .T. ) ;
#28 = CARTESIAN_POINT ( 'NONE',  ( 0.0000000000000000000, -1.169756716733930198E-18, 0.02542084157274790424 ) ) ;
#29 = FACE_OUTER_BOUND ( 'NONE', #135, .T. ) ;
#30 = DIRECTION ( 'NONE',  ( 0.0000000000000000000, -1.000000000000000000, -3.173274651177083851E-16 ) ) ;
#31 = DIRECTION ( 'NONE',  ( 0.0000000000000000000, 1.000000000000000000, 3.073328992872300312E-16 ) ) ;
#32 = APPLICATION_PROTOCOL_DEFINITION ( 'international standard', 'config_control_design', 1994, #165 ) ;
#33 = EDGE_CURVE ( 'NONE', #42, #288, #295, .T. ) ;
#34 = CARTESIAN_POINT ( 'NONE',  ( 0.0000000000000000000, -1.169756716733930198E-18, 0.02542084157274790424 ) ) ;
#35 = CIRCLE ( 'NONE', #248, 0.6153947594533973886 ) ;
#36 = EDGE_CURVE ( 'NONE', #252, #280, #159, .T. ) ;
#37 = APPROVAL_STATUS ( 'not_yet_approved' ) ;
#38 = APPROVAL_PERSON_ORGANIZATION ( #103, #174, #290 ) ;
#39 = APPLICATION_PROTOCOL_DEFINITION ( 'international standard', 'config_control_design', 1994, #220 ) ;
#40 = CC_DESIGN_APPROVAL ( #278, ( #83 ) ) ;
#41 = ADVANCED_FACE ( 'NONE', ( #51 ), #43, .T. ) ;
#42 = VERTEX_POINT ( 'NONE', #65 ) ;
#43 = CYLINDRICAL_SURFACE ( 'NONE', #177, 0.6349999999999991207 ) ;
#44 = ORIENTED_EDGE ( 'NONE', *, *, #200, .T. ) ;
#45 = ORIENTED_EDGE ( 'NONE', *, *, #154, .T. ) ;
#46 = AXIS2_PLACEMENT_3D ( 'NONE', #28, #113, #259 ) ;
#47 = DIRECTION ( 'NONE',  ( 0.0000000000000000000, -3.061515884555943146E-16, 1.000000000000000000 ) ) ;
#48 = ORIENTED_EDGE ( 'NONE', *, *, #138, .T. ) ;
#49 = DIRECTION ( 'NONE',  ( 0.0000000000000000000, 1.000000000000000000, 3.061515884555943146E-16 ) ) ;
#50 = DIRECTION ( 'NONE',  ( 8.659560562354876159E-17, 0.7071067811865425767, 0.7071067811865525687 ) ) ;
#51 = FACE_OUTER_BOUND ( 'NONE', #198, .T. ) ;
#52 = EDGE_CURVE ( 'NONE', #280, #203, #239, .T. ) ;
#53 = DIRECTION ( 'NONE',  ( -0.0000000000000000000, 3.061515884555943146E-16, -1.000000000000000000 ) ) ;
#54 = ORIENTED_EDGE ( 'NONE', *, *, #52, .T. ) ;
#55 = DIRECTION ( 'NONE',  ( 1.000000000000000000, 0.0000000000000000000, 0.0000000000000000000 ) ) ;
#56 = CALENDAR_DATE ( 2019, 16, 7 ) ;
#57 = CC_DESIGN_PERSON_AND_ORGANIZATION_ASSIGNMENT ( #121, #190, ( #4 ) ) ;
#58 = CIRCLE ( 'NONE', #176, 3.470999999999996533 ) ;
#59 = VERTEX_POINT ( 'NONE', #160 ) ;
#60 = ORIENTED_EDGE ( 'NONE', *, *, #14, .F. ) ;
#61 = DIRECTION ( 'NONE',  ( 0.0000000000000000000, -1.000000000000000000, -3.173274651177083851E-16 ) ) ;
#62 = ORGANIZATION ( 'UNSPECIFIED', 'UNSPECIFIED', '' ) ;
#63 = CIRCLE ( 'NONE', #17, 0.6153947594533973886 ) ;
#64 = ORIENTED_EDGE ( 'NONE', *, *, #226, .F. ) ;
#65 = CARTESIAN_POINT ( 'NONE',  ( 7.654042494670955388E-17, 0.6150000000000004352, -0.1039999999999998981 ) ) ;
#66 = DIRECTION ( 'NONE',  ( 0.0000000000000000000, 1.000000000000000000, 3.073328992872300312E-16 ) ) ;
#67 = EDGE_LOOP ( 'NONE', ( #85, #27, #18, #60 ) ) ;
#68 = DIRECTION ( 'NONE',  ( 0.0000000000000000000, 1.000000000000000000, 3.073328992872300312E-16 ) ) ;
#69 = AXIS2_PLACEMENT_3D ( 'NONE', #131, #300, #66 ) ;
#70 = DIRECTION ( 'NONE',  ( -0.0000000000000000000, 3.061515884555943146E-16, -1.000000000000000000 ) ) ;
#71 = ORIENTED_EDGE ( 'NONE', *, *, #129, .T. ) ;
#72 = ORIENTED_EDGE ( 'NONE', *, *, #148, .T. ) ;
#73 = CARTESIAN_POINT ( 'NONE',  ( 0.0000000000000000000, 0.0000000000000000000, 0.0000000000000000000 ) ) ;
#74 = CARTESIAN_POINT ( 'NONE',  ( 0.0000000000000000000, 3.845263951002265942E-17, -0.1040000000000000091 ) ) ;
#75 = CARTESIAN_POINT ( 'NONE',  ( 0.0000000000000000000, 3.998339745230043131E-16, -3.366999999999986670 ) ) ;
#76 = VERTEX_POINT ( 'NONE', #261 ) ;
#77 = DESIGN_CONTEXT ( 'detailed design', #220, 'design' ) ;
#78 = PERSON_AND_ORGANIZATION_ROLE ( 'design_supplier' ) ;
#79 = APPROVAL_ROLE ( '' ) ;
#80 = APPROVAL_ROLE ( '' ) ;
#81 = CIRCLE ( 'NONE', #242, 0.6349999999999991207 ) ;
#82 = PERSON_AND_ORGANIZATION_ROLE ( 'creator' ) ;
#83 = PRODUCT_DEFINITION ( 'UNKNOWN', '', #133, #77 ) ;
#84 = CONICAL_SURFACE ( 'NONE', #69, 0.6349999999999991207, 0.6934078819524600590 ) ;
#85 = ORIENTED_EDGE ( 'NONE', *, *, #33, .F. ) ;
#86 = DIRECTION ( 'NONE',  ( 0.0000000000000000000, 0.6391617962505550254, -0.7690722971306169775 ) ) ;
#87 = CC_DESIGN_DATE_AND_TIME_ASSIGNMENT ( #246, #124, ( #83 ) ) ;
#88 = ADVANCED_FACE ( 'NONE', ( #21 ), #84, .T. ) ;
#89 = CONICAL_SURFACE ( 'NONE', #229, 0.6150000000000004352, 0.7853981633974415066 ) ;
#90 = DIRECTION ( 'NONE',  ( 0.0000000000000000000, 1.000000000000000000, 3.073328992872300312E-16 ) ) ;
#91 = VECTOR ( 'NONE', #70, 100.0000000000000000 ) ;
#92 = CARTESIAN_POINT ( 'NONE',  ( 7.776507174585681809E-17, -0.6349999999999991207, 0.02542084157274770995 ) ) ;
#93 = CC_DESIGN_PERSON_AND_ORGANIZATION_ASSIGNMENT ( #218, #82, ( #83 ) ) ;
#94 = DIRECTION ( 'NONE',  ( 0.0000000000000000000, 1.000000000000000000, 3.073328992872300312E-16 ) ) ;
#95 = CIRCLE ( 'NONE', #100, 0.6349999999999991207 ) ;
#96 = DIRECTION ( 'NONE',  ( 1.000000000000000000, 0.0000000000000000000, -0.0000000000000000000 ) ) ;
#97 = CARTESIAN_POINT ( 'NONE',  ( 0.0000000000000000000, -0.6150000000000004352, -0.1040000000000003005 ) ) ;
#98 = CARTESIAN_POINT ( 'NONE',  ( 7.776507174585681809E-17, -0.6349999999999991207, -0.1040000000000002034 ) ) ;
#99 = PRODUCT_DEFINITION_SHAPE ( 'NONE', 'NONE',  #83 ) ;
#100 = AXIS2_PLACEMENT_3D ( 'NONE', #232, #47, #68 ) ;
#101 = DIRECTION ( 'NONE',  ( 0.0000000000000000000, 0.0000000000000000000, 1.000000000000000000 ) ) ;
#102 = VECTOR ( 'NONE', #86, 100.0000000000000000 ) ;
#103 = PERSON_AND_ORGANIZATION ( #136, #62 ) ;
#104 = CIRCLE ( 'NONE', #46, 0.6349999999999991207 ) ;
#105 = SECURITY_CLASSIFICATION_LEVEL ( 'unclassified' ) ;
#106 = DATE_AND_TIME ( #149, #286 ) ;
#107 = AXIS2_PLACEMENT_3D ( 'NONE', #276, #194, #277 ) ;
#108 = CONICAL_SURFACE ( 'NONE', #269, 0.6150000000000004352, 0.7853981633974415066 ) ;
#109 = ORIENTED_EDGE ( 'NONE', *, *, #193, .F. ) ;
#110 = DIRECTION ( 'NONE',  ( -0.0000000000000000000, 3.061515884555943146E-16, -1.000000000000000000 ) ) ;
#111 = DIRECTION ( 'NONE',  ( 7.827474479155146485E-17, -0.6391617962505545814, -0.7690722971306174216 ) ) ;
#112 = UNCERTAINTY_MEASURE_WITH_UNIT (LENGTH_MEASURE( 1.000000000000000082E-05 ), #238, 'distance_accuracy_value', 'NONE');
#113 = DIRECTION ( 'NONE',  ( -0.0000000000000000000, 3.061515884555969770E-16, -1.000000000000000000 ) ) ;
#114 = CARTESIAN_POINT ( 'NONE',  ( 7.531577814756227734E-17, 0.6150000000000004352, -0.1039999999999998981 ) ) ;
#115 = PRODUCT ( '20130-E0W', '20130-E0W', '', ( #211 ) ) ;
#116 =( NAMED_UNIT ( * ) SI_UNIT ( $, .STERADIAN. ) SOLID_ANGLE_UNIT ( ) );
#117 = EDGE_LOOP ( 'NONE', ( #189, #3, #178, #256 ) ) ;
#118 = DIRECTION ( 'NONE',  ( -0.0000000000000000000, 3.061515884555969770E-16, -1.000000000000000000 ) ) ;
#119 = CARTESIAN_POINT ( 'NONE',  ( 0.0000000000000000000, -1.169756716733853161E-18, 0.02542084157274790424 ) ) ;
#120 =( GEOMETRIC_REPRESENTATION_CONTEXT ( 3 ) GLOBAL_UNCERTAINTY_ASSIGNED_CONTEXT ( ( #112 ) ) GLOBAL_UNIT_ASSIGNED_CONTEXT ( ( #238, #241, #116 ) ) REPRESENTATION_CONTEXT ( 'NONE', 'WORKASPACE' ) );
#121 = PERSON_AND_ORGANIZATION ( #136, #62 ) ;
#122 = CLOSED_SHELL ( 'NONE', ( #88, #197, #250, #145, #273, #227, #41, #20, #223 ) ) ;
#123 = PERSON_AND_ORGANIZATION_ROLE ( 'design_owner' ) ;
#124 = DATE_TIME_ROLE ( 'creation_date' ) ;
#125 = PERSON_AND_ORGANIZATION_ROLE ( 'creator' ) ;
#126 = ORIENTED_EDGE ( 'NONE', *, *, #299, .F. ) ;
#127 = AXIS2_PLACEMENT_3D ( 'NONE', #237, #164, #289 ) ;
#128 = VERTEX_POINT ( 'NONE', #157 ) ;
#129 = EDGE_CURVE ( 'NONE', #76, #249, #81, .T. ) ;
#130 = CARTESIAN_POINT ( 'NONE',  ( 0.0000000000000000000, 3.845263951002265942E-17, -0.1040000000000000091 ) ) ;
#131 = CARTESIAN_POINT ( 'NONE',  ( 0.0000000000000000000, -1.169756716733853161E-18, 0.02542084157274790424 ) ) ;
#132 = EDGE_LOOP ( 'NONE', ( #45, #287 ) ) ;
#133 = PRODUCT_DEFINITION_FORMATION_WITH_SPECIFIED_SOURCE ( 'ANY', '', #115, .NOT_KNOWN. ) ;
#134 = APPROVAL_DATE_TIME ( #25, #174 ) ;
#135 = EDGE_LOOP ( 'NONE', ( #48, #44, #72, #185 ) ) ;
#136 = PERSON ( 'UNSPECIFIED', 'UNSPECIFIED', 'UNSPECIFIED', ('UNSPECIFIED'), ('UNSPECIFIED'), ('UNSPECIFIED') ) ;
#137 = DIRECTION ( 'NONE',  ( 0.0000000000000000000, 1.000000000000000000, 2.995059130601737338E-16 ) ) ;
#138 = EDGE_CURVE ( 'NONE', #203, #59, #104, .T. ) ;
#139 = CARTESIAN_POINT ( 'NONE',  ( 0.0000000000000000000, 0.6349999999999991207, 0.02542084157274809852 ) ) ;
#140 = DIRECTION ( 'NONE',  ( 1.000000000000000000, 1.224646799147353207E-16, 3.749275628560213616E-32 ) ) ;
#141 = ORIENTED_EDGE ( 'NONE', *, *, #179, .T. ) ;
#142 = AXIS2_PLACEMENT_3D ( 'NONE', #281, #206, #6 ) ;
#143 = APPROVAL_PERSON_ORGANIZATION ( #195, #208, #80 ) ;
#144 = SPHERICAL_SURFACE ( 'NONE', #127, 3.470999999999996533 ) ;
#145 = ADVANCED_FACE ( 'NONE', ( #183 ), #172, .T. ) ;
#146 = COORDINATED_UNIVERSAL_TIME_OFFSET ( 5, 0, .BEHIND. ) ;
#147 = ORIENTED_EDGE ( 'NONE', *, *, #244, .T. ) ;
#148 = EDGE_CURVE ( 'NONE', #249, #76, #95, .T. ) ;
#149 = CALENDAR_DATE ( 2019, 16, 7 ) ;
#150 = EDGE_LOOP ( 'NONE', ( #109, #64, #54, #9 ) ) ;
#151 = DIRECTION ( 'NONE',  ( -0.0000000000000000000, 3.061515884555943146E-16, -1.000000000000000000 ) ) ;
#152 = DIRECTION ( 'NONE',  ( 0.0000000000000000000, 0.0000000000000000000, 1.000000000000000000 ) ) ;
#153 = FACE_OUTER_BOUND ( 'NONE', #117, .T. ) ;
#154 = EDGE_CURVE ( 'NONE', #288, #42, #247, .T. ) ;
#155 = EDGE_LOOP ( 'NONE', ( #214, #173, #182 ) ) ;
#156 = ADVANCED_BREP_SHAPE_REPRESENTATION ( '20130-E0W', ( #192, #233 ), #120 ) ;
#157 = CARTESIAN_POINT ( 'NONE',  ( 7.536412223766567725E-17, -0.6153947594533965004, 0.04901087381720187208 ) ) ;
#158 = CALENDAR_DATE ( 2019, 16, 7 ) ;
#159 = CIRCLE ( 'NONE', #222, 3.470999999999996533 ) ;
#160 = CARTESIAN_POINT ( 'NONE',  ( 7.776507174585681809E-17, -0.6349999999999991207, 0.02542084157274770995 ) ) ;
#161 = AXIS2_PLACEMENT_3D ( 'NONE', #34, #118, #10 ) ;
#162 = CARTESIAN_POINT ( 'NONE',  ( 7.776507174585681809E-17, -0.6349999999999991207, -0.08400000000000136524 ) ) ;
#163 = CC_DESIGN_APPROVAL ( #208, ( #4 ) ) ;
#164 = DIRECTION ( 'NONE',  ( 1.000000000000000000, 0.0000000000000000000, -0.0000000000000000000 ) ) ;
#165 = APPLICATION_CONTEXT ( 'configuration controlled 3d designs of mechanical parts and assemblies' ) ;
#166 = FACE_OUTER_BOUND ( 'NONE', #150, .T. ) ;
#167 = ORIENTED_EDGE ( 'NONE', *, *, #200, .F. ) ;
#168 = DIRECTION ( 'NONE',  ( 0.0000000000000000000, -3.061515884555969770E-16, 1.000000000000000000 ) ) ;
#169 = CC_DESIGN_PERSON_AND_ORGANIZATION_ASSIGNMENT ( #297, #125, ( #133 ) ) ;
#170 = COORDINATED_UNIVERSAL_TIME_OFFSET ( 5, 0, .BEHIND. ) ;
#171 = CYLINDRICAL_SURFACE ( 'NONE', #216, 0.6349999999999991207 ) ;
#172 = SPHERICAL_SURFACE ( 'NONE', #210, 3.470999999999996533 ) ;
#173 = ORIENTED_EDGE ( 'NONE', *, *, #36, .T. ) ;
#174 = APPROVAL ( #37, 'UNSPECIFIED' ) ;
#175 = CARTESIAN_POINT ( 'NONE',  ( 0.0000000000000000000, 3.845263951002269023E-17, -0.1040000000000000924 ) ) ;
#176 = AXIS2_PLACEMENT_3D ( 'NONE', #75, #140, #11 ) ;
#177 = AXIS2_PLACEMENT_3D ( 'NONE', #130, #151, #90 ) ;
#178 = ORIENTED_EDGE ( 'NONE', *, *, #14, .T. ) ;
#179 = EDGE_CURVE ( 'NONE', #59, #203, #275, .T. ) ;
#180 = CARTESIAN_POINT ( 'NONE',  ( 0.0000000000000000000, 3.998339745230043131E-16, -3.366999999999986670 ) ) ;
#181 = CC_DESIGN_DATE_AND_TIME_ASSIGNMENT ( #291, #12, ( #4 ) ) ;
#182 = ORIENTED_EDGE ( 'NONE', *, *, #226, .T. ) ;
#183 = FACE_OUTER_BOUND ( 'NONE', #22, .T. ) ;
#184 = CARTESIAN_POINT ( 'NONE',  ( 0.0000000000000000000, -4.502807370143394180E-16, 0.1040000000000096403 ) ) ;
#185 = ORIENTED_EDGE ( 'NONE', *, *, #16, .F. ) ;
#186 = DIRECTION ( 'NONE',  ( -0.0000000000000000000, 3.061515884555943146E-16, -1.000000000000000000 ) ) ;
#187 = CC_DESIGN_APPROVAL ( #174, ( #133 ) ) ;
#188 = PLANE ( 'NONE',  #258 ) ;
#189 = ORIENTED_EDGE ( 'NONE', *, *, #294, .F. ) ;
#190 = PERSON_AND_ORGANIZATION_ROLE ( 'classification_officer' ) ;
#191 = CC_DESIGN_PERSON_AND_ORGANIZATION_ASSIGNMENT ( #283, #78, ( #133 ) ) ;
#192 = MANIFOLD_SOLID_BREP ( '20130-001-1-solid1', #122 ) ;
#193 = EDGE_CURVE ( 'NONE', #128, #59, #279, .T. ) ;
#194 = DIRECTION ( 'NONE',  ( -0.0000000000000000000, 3.061515884555943146E-16, -1.000000000000000000 ) ) ;
#195 = PERSON_AND_ORGANIZATION ( #136, #62 ) ;
#196 = CALENDAR_DATE ( 2019, 16, 7 ) ;
#197 = ADVANCED_FACE ( 'NONE', ( #212 ), #89, .T. ) ;
#198 = EDGE_LOOP ( 'NONE', ( #167, #141, #296, #71 ) ) ;
#199 = DIRECTION ( 'NONE',  ( 0.0000000000000000000, -0.7071067811865430208, 0.7071067811865521247 ) ) ;
#200 = EDGE_CURVE ( 'NONE', #59, #249, #235, .T. ) ;
#201 = COORDINATED_UNIVERSAL_TIME_OFFSET ( 5, 0, .BEHIND. ) ;
#202 = SHAPE_DEFINITION_REPRESENTATION ( #99, #156 ) ;
#203 = VERTEX_POINT ( 'NONE', #139 ) ;
#204 = CARTESIAN_POINT ( 'NONE',  ( 0.0000000000000000000, 3.232960774091112811E-17, -0.08400000000000115707 ) ) ;
#205 = CARTESIAN_POINT ( 'NONE',  ( 0.0000000000000000000, 3.845263951002269023E-17, -0.1040000000000000924 ) ) ;
#206 = DIRECTION ( 'NONE',  ( -0.0000000000000000000, 3.061515884555943146E-16, -1.000000000000000000 ) ) ;
#207 = COORDINATED_UNIVERSAL_TIME_OFFSET ( 5, 0, .BEHIND. ) ;
#208 = APPROVAL ( #272, 'UNSPECIFIED' ) ;
#209 = FACE_OUTER_BOUND ( 'NONE', #132, .T. ) ;
#210 = AXIS2_PLACEMENT_3D ( 'NONE', #180, #96, #257 ) ;
#211 = MECHANICAL_CONTEXT ( 'NONE', #165, 'mechanical' ) ;
#212 = FACE_OUTER_BOUND ( 'NONE', #67, .T. ) ;
#213 = DIRECTION ( 'NONE',  ( 0.0000000000000000000, -3.061515884555943146E-16, 1.000000000000000000 ) ) ;
#214 = ORIENTED_EDGE ( 'NONE', *, *, #244, .F. ) ;
#215 = CARTESIAN_POINT ( 'NONE',  ( 0.0000000000000000000, 3.845263951002269023E-17, -0.1040000000000000924 ) ) ;
#216 = AXIS2_PLACEMENT_3D ( 'NONE', #74, #186, #31 ) ;
#217 = LOCAL_TIME ( 7, 10, 49.00000000000000000, #201 ) ;
#218 = PERSON_AND_ORGANIZATION ( #136, #62 ) ;
#219 = ORIENTED_EDGE ( 'NONE', *, *, #52, .F. ) ;
#220 = APPLICATION_CONTEXT ( 'configuration controlled 3d designs of mechanical parts and assemblies' ) ;
#221 = APPROVAL_DATE_TIME ( #106, #208 ) ;
#222 = AXIS2_PLACEMENT_3D ( 'NONE', #2, #19, #152 ) ;
#223 = ADVANCED_FACE ( 'NONE', ( #166 ), #255, .T. ) ;
#224 = LOCAL_TIME ( 7, 10, 49.00000000000000000, #170 ) ;
#225 = VECTOR ( 'NONE', #110, 100.0000000000000000 ) ;
#226 = EDGE_CURVE ( 'NONE', #280, #128, #35, .T. ) ;
#227 = ADVANCED_FACE ( 'NONE', ( #26 ), #144, .T. ) ;
#228 = CARTESIAN_POINT ( 'NONE',  ( 0.0000000000000000000, 0.6349999999999991207, -0.1039999999999998148 ) ) ;
#229 = AXIS2_PLACEMENT_3D ( 'NONE', #205, #213, #30 ) ;
#230 = LINE ( 'NONE', #114, #271 ) ;
#231 = EDGE_LOOP ( 'NONE', ( #126, #263, #260, #219 ) ) ;
#232 = CARTESIAN_POINT ( 'NONE',  ( 0.0000000000000000000, 3.232960774091112811E-17, -0.08400000000000115707 ) ) ;
#233 = AXIS2_PLACEMENT_3D ( 'NONE', #73, #101, #55 ) ;
#234 = APPROVAL_DATE_TIME ( #298, #278 ) ;
#235 = LINE ( 'NONE', #98, #91 ) ;
#236 = DIRECTION ( 'NONE',  ( 0.0000000000000000000, -3.061515884555943146E-16, 1.000000000000000000 ) ) ;
#237 = CARTESIAN_POINT ( 'NONE',  ( 0.0000000000000000000, 3.998339745230043131E-16, -3.366999999999986670 ) ) ;
#238 =( LENGTH_UNIT ( ) NAMED_UNIT ( * ) SI_UNIT ( .CENTI., .METRE. ) );
#239 = LINE ( 'NONE', #23, #102 ) ;
#240 = ORIENTED_EDGE ( 'NONE', *, *, #36, .F. ) ;
#241 =( NAMED_UNIT ( * ) PLANE_ANGLE_UNIT ( ) SI_UNIT ( $, .RADIAN. ) );
#242 = AXIS2_PLACEMENT_3D ( 'NONE', #204, #236, #94 ) ;
#243 = COORDINATED_UNIVERSAL_TIME_OFFSET ( 5, 0, .BEHIND. ) ;
#244 = EDGE_CURVE ( 'NONE', #252, #128, #58, .T. ) ;
#245 = APPROVAL_STATUS ( 'not_yet_approved' ) ;
#246 = DATE_AND_TIME ( #158, #224 ) ;
#247 = CIRCLE ( 'NONE', #142, 0.6150000000000004352 ) ;
#248 = AXIS2_PLACEMENT_3D ( 'NONE', #268, #168, #265 ) ;
#249 = VERTEX_POINT ( 'NONE', #162 ) ;
#250 = ADVANCED_FACE ( 'NONE', ( #29 ), #171, .T. ) ;
#251 = PERSON_AND_ORGANIZATION ( #136, #62 ) ;
#252 = VERTEX_POINT ( 'NONE', #184 ) ;
#253 = CC_DESIGN_SECURITY_CLASSIFICATION ( #4, ( #133 ) ) ;
#254 = DIRECTION ( 'NONE',  ( 0.0000000000000000000, -3.061515884555943146E-16, 1.000000000000000000 ) ) ;
#255 = CONICAL_SURFACE ( 'NONE', #264, 0.6349999999999991207, 0.6934078819524600590 ) ;
#256 = ORIENTED_EDGE ( 'NONE', *, *, #129, .F. ) ;
#257 = DIRECTION ( 'NONE',  ( 0.0000000000000000000, 1.000000000000000000, 3.998210258661616510E-16 ) ) ;
#258 = AXIS2_PLACEMENT_3D ( 'NONE', #215, #53, #49 ) ;
#259 = DIRECTION ( 'NONE',  ( 0.0000000000000000000, -1.000000000000000000, -3.073328992872300312E-16 ) ) ;
#260 = ORIENTED_EDGE ( 'NONE', *, *, #138, .F. ) ;
#261 = CARTESIAN_POINT ( 'NONE',  ( 0.0000000000000000000, 0.6349999999999991207, -0.08400000000000096279 ) ) ;
#262 = CALENDAR_DATE ( 2019, 16, 7 ) ;
#263 = ORIENTED_EDGE ( 'NONE', *, *, #193, .T. ) ;
#264 = AXIS2_PLACEMENT_3D ( 'NONE', #119, #284, #8 ) ;
#265 = DIRECTION ( 'NONE',  ( 0.0000000000000000000, 1.000000000000000000, 2.995059130601737338E-16 ) ) ;
#266 = CARTESIAN_POINT ( 'NONE',  ( 0.0000000000000000000, 0.6153947594533953902, 0.04901087381720203862 ) ) ;
#267 = CARTESIAN_POINT ( 'NONE',  ( 0.0000000000000000000, -6.459831806777198861E-16, 0.04901087381720195535 ) ) ;
#268 = CARTESIAN_POINT ( 'NONE',  ( 0.0000000000000000000, -6.459831806777198861E-16, 0.04901087381720195535 ) ) ;
#269 = AXIS2_PLACEMENT_3D ( 'NONE', #175, #254, #61 ) ;
#270 = LOCAL_TIME ( 7, 10, 49.00000000000000000, #207 ) ;
#271 = VECTOR ( 'NONE', #50, 100.0000000000000000 ) ;
#272 = APPROVAL_STATUS ( 'not_yet_approved' ) ;
#273 = ADVANCED_FACE ( 'NONE', ( #209 ), #188, .T. ) ;
#274 = VECTOR ( 'NONE', #111, 100.0000000000000000 ) ;
#275 = CIRCLE ( 'NONE', #161, 0.6349999999999991207 ) ;
#276 = CARTESIAN_POINT ( 'NONE',  ( 0.0000000000000000000, 3.845263951002269023E-17, -0.1040000000000000924 ) ) ;
#277 = DIRECTION ( 'NONE',  ( 0.0000000000000000000, 1.000000000000000000, 3.173274651177083851E-16 ) ) ;
#278 = APPROVAL ( #245, 'UNSPECIFIED' ) ;
#279 = LINE ( 'NONE', #92, #274 ) ;
#280 = VERTEX_POINT ( 'NONE', #266 ) ;
#281 = CARTESIAN_POINT ( 'NONE',  ( 0.0000000000000000000, 3.845263951002269023E-17, -0.1040000000000000924 ) ) ;
#282 = PRODUCT_RELATED_PRODUCT_CATEGORY ( 'detail', '', ( #115 ) ) ;
#283 = PERSON_AND_ORGANIZATION ( #136, #62 ) ;
#284 = DIRECTION ( 'NONE',  ( -0.0000000000000000000, 3.061515884555969770E-16, -1.000000000000000000 ) ) ;
#285 = DIRECTION ( 'NONE',  ( 0.0000000000000000000, -3.061515884555969770E-16, 1.000000000000000000 ) ) ;
#286 = LOCAL_TIME ( 7, 10, 49.00000000000000000, #146 ) ;
#287 = ORIENTED_EDGE ( 'NONE', *, *, #33, .T. ) ;
#288 = VERTEX_POINT ( 'NONE', #97 ) ;
#289 = DIRECTION ( 'NONE',  ( 0.0000000000000000000, 1.000000000000000000, 3.998210258661616510E-16 ) ) ;
#290 = APPROVAL_ROLE ( '' ) ;
#291 = DATE_AND_TIME ( #262, #217 ) ;
#292 = LOCAL_TIME ( 7, 10, 49.00000000000000000, #243 ) ;
#293 = LINE ( 'NONE', #228, #225 ) ;
#294 = EDGE_CURVE ( 'NONE', #42, #76, #230, .T. ) ;
#295 = CIRCLE ( 'NONE', #107, 0.6150000000000004352 ) ;
#296 = ORIENTED_EDGE ( 'NONE', *, *, #16, .T. ) ;
#297 = PERSON_AND_ORGANIZATION ( #136, #62 ) ;
#298 = DATE_AND_TIME ( #56, #292 ) ;
#299 = EDGE_CURVE ( 'NONE', #128, #280, #63, .T. ) ;
#300 = DIRECTION ( 'NONE',  ( -0.0000000000000000000, 3.061515884555969770E-16, -1.000000000000000000 ) ) ;
#301 = CARTESIAN_POINT ( 'NONE',  ( 0.0000000000000000000, -0.6150000000000004352, -0.1040000000000003005 ) ) ;
ENDSEC;
END-ISO-10303-21;
