ISO-10303-21;
HEADER;
FILE_DESCRIPTION (( 'STEP AP203' ),
    '1' );
FILE_NAME ('step_35940.step',
    '2017-05-22T20:26:10',
    ( '' ),
    ( '' ),
    'SwSTEP 2.0',
    'SolidWorks 2016',
    '' );
FILE_SCHEMA (( 'CONFIG_CONTROL_DESIGN' ));
ENDSEC;

DATA;
#1 = CARTESIAN_POINT ( 'NONE',  ( 0.0000000000000000000, 0.0000000000000000000, 0.0000000000000000000 ) ) ;
#2 = DIRECTION ( 'NONE',  ( -0.0000000000000000000, -0.0000000000000000000, -1.000000000000000000 ) ) ;
#3 = PLANE ( 'NONE',  #91 ) ;
#4 = CARTESIAN_POINT ( 'NONE',  ( 0.0000000000000000000, 0.0000000000000000000, 1.000000000000000000 ) ) ;
#5 = PERSON_AND_ORGANIZATION_ROLE ( 'design_owner' ) ;
#6 = DIRECTION ( 'NONE',  ( -0.0000000000000000000, -0.0000000000000000000, -1.000000000000000000 ) ) ;
#7 = ORIENTED_EDGE ( 'NONE', *, *, #160, .F. ) ;
#8 = DIRECTION ( 'NONE',  ( -1.000000000000000000, 0.0000000000000000000, 0.0000000000000000000 ) ) ;
#9 = MECHANICAL_CONTEXT ( 'NONE', #30, 'mechanical' ) ;
#10 = PERSON_AND_ORGANIZATION_ROLE ( 'design_supplier' ) ;
#11 = CARTESIAN_POINT ( 'NONE',  ( -6.250000000000000000, 0.0000000000000000000, 0.0000000000000000000 ) ) ;
#12 =( NAMED_UNIT ( * ) SI_UNIT ( $, .STERADIAN. ) SOLID_ANGLE_UNIT ( ) );
#13 = DIRECTION ( 'NONE',  ( 1.000000000000000000, 0.0000000000000000000, -0.0000000000000000000 ) ) ;
#14 = DATE_TIME_ROLE ( 'classification_date' ) ;
#15 = APPROVAL_STATUS ( 'not_yet_approved' ) ;
#16 = PRODUCT_RELATED_PRODUCT_CATEGORY ( 'detail', '', ( #138 ) ) ;
#17 = DIRECTION ( 'NONE',  ( 1.000000000000000000, 0.0000000000000000000, 0.0000000000000000000 ) ) ;
#18 = CIRCLE ( 'NONE', #105, 6.250000000000000000 ) ;
#19 = CC_DESIGN_SECURITY_CLASSIFICATION ( #37, ( #75 ) ) ;
#20 = CARTESIAN_POINT ( 'NONE',  ( 6.250000000000000000, 7.654042494670957600E-016, 1.000000000000000000 ) ) ;
#21 = PERSON_AND_ORGANIZATION_ROLE ( 'classification_officer' ) ;
#22 = CC_DESIGN_APPROVAL ( #25, ( #37 ) ) ;
#23 = APPROVAL_ROLE ( '' ) ;
#24 = CIRCLE ( 'NONE', #110, 6.250000000000000000 ) ;
#25 = APPROVAL ( #43, 'UNSPECIFIED' ) ;
#26 = VECTOR ( 'NONE', #2, 1000.000000000000000 ) ;
#27 = DIRECTION ( 'NONE',  ( 0.0000000000000000000, 0.0000000000000000000, 1.000000000000000000 ) ) ;
#28 = CC_DESIGN_DATE_AND_TIME_ASSIGNMENT ( #45, #14, ( #37 ) ) ;
#29 = CC_DESIGN_PERSON_AND_ORGANIZATION_ASSIGNMENT ( #84, #21, ( #37 ) ) ;
#30 = APPLICATION_CONTEXT ( 'configuration controlled 3d designs of mechanical parts and assemblies' ) ;
#31 = VECTOR ( 'NONE', #154, 1000.000000000000000 ) ;
#32 = PERSON_AND_ORGANIZATION_ROLE ( 'creator' ) ;
#33 = DIRECTION ( 'NONE',  ( -0.0000000000000000000, -0.0000000000000000000, -1.000000000000000000 ) ) ;
#34 = PERSON ( 'UNSPECIFIED', 'UNSPECIFIED', 'UNSPECIFIED', ('UNSPECIFIED'), ('UNSPECIFIED'), ('UNSPECIFIED') ) ;
#35 = PRODUCT_DEFINITION_SHAPE ( 'NONE', 'NONE',  #62 ) ;
#36 = EDGE_LOOP ( 'NONE', ( #128, #174, #169, #145 ) ) ;
#37 = SECURITY_CLASSIFICATION ( '', '', #139 ) ;
#38 = DIRECTION ( 'NONE',  ( 0.0000000000000000000, 0.0000000000000000000, 1.000000000000000000 ) ) ;
#39 = CC_DESIGN_PERSON_AND_ORGANIZATION_ASSIGNMENT ( #101, #10, ( #75 ) ) ;
#40 = VERTEX_POINT ( 'NONE', #11 ) ;
#41 = CALENDAR_DATE ( 2017, 22, 5 ) ;
#42 = EDGE_LOOP ( 'NONE', ( #171, #7 ) ) ;
#43 = APPROVAL_STATUS ( 'not_yet_approved' ) ;
#44 = DIRECTION ( 'NONE',  ( 0.0000000000000000000, 0.0000000000000000000, 1.000000000000000000 ) ) ;
#45 = DATE_AND_TIME ( #41, #83 ) ;
#46 = CC_DESIGN_PERSON_AND_ORGANIZATION_ASSIGNMENT ( #78, #32, ( #75 ) ) ;
#47 = CARTESIAN_POINT ( 'NONE',  ( 0.0000000000000000000, 0.0000000000000000000, 0.0000000000000000000 ) ) ;
#48 = CC_DESIGN_APPROVAL ( #87, ( #75 ) ) ;
#49 = PLANE ( 'NONE',  #51 ) ;
#50 = PERSON_AND_ORGANIZATION_ROLE ( 'creator' ) ;
#51 = AXIS2_PLACEMENT_3D ( 'NONE', #90, #27, #167 ) ;
#52 = APPROVAL_PERSON_ORGANIZATION ( #69, #112, #93 ) ;
#53 = EDGE_CURVE ( 'NONE', #130, #156, #65, .T. ) ;
#54 = CIRCLE ( 'NONE', #175, 6.250000000000000000 ) ;
#55 = LOCAL_TIME ( 13, 26, 10.00000000000000000, #164 ) ;
#56 = CALENDAR_DATE ( 2017, 22, 5 ) ;
#57 = CC_DESIGN_PERSON_AND_ORGANIZATION_ASSIGNMENT ( #72, #50, ( #62 ) ) ;
#58 = COORDINATED_UNIVERSAL_TIME_OFFSET ( 7, 0, .BEHIND. ) ;
#59 = ORIENTED_EDGE ( 'NONE', *, *, #125, .T. ) ;
#60 = CC_DESIGN_APPROVAL ( #112, ( #62 ) ) ;
#61 = LOCAL_TIME ( 13, 26, 10.00000000000000000, #58 ) ;
#62 = PRODUCT_DEFINITION ( 'UNKNOWN', '', #75, #121 ) ;
#63 = CARTESIAN_POINT ( 'NONE',  ( 0.0000000000000000000, 0.0000000000000000000, 1.000000000000000000 ) ) ;
#64 = APPROVAL_PERSON_ORGANIZATION ( #115, #25, #86 ) ;
#65 = LINE ( 'NONE', #118, #26 ) ;
#66 = CARTESIAN_POINT ( 'NONE',  ( -6.250000000000000000, 0.0000000000000000000, 1.000000000000000000 ) ) ;
#67 = APPROVAL_DATE_TIME ( #106, #25 ) ;
#68 = UNCERTAINTY_MEASURE_WITH_UNIT (LENGTH_MEASURE( 1.000000000000000100E-005 ), #142, 'distance_accuracy_value', 'NONE');
#69 = PERSON_AND_ORGANIZATION ( #34, #102 ) ;
#70 = APPROVAL_DATE_TIME ( #89, #112 ) ;
#71 = APPROVAL_DATE_TIME ( #161, #87 ) ;
#72 = PERSON_AND_ORGANIZATION ( #34, #102 ) ;
#73 = SHAPE_DEFINITION_REPRESENTATION ( #35, #163 ) ;
#74 = CALENDAR_DATE ( 2017, 22, 5 ) ;
#75 = PRODUCT_DEFINITION_FORMATION_WITH_SPECIFIED_SOURCE ( 'ANY', '', #138, .NOT_KNOWN. ) ;
#76 = CALENDAR_DATE ( 2017, 22, 5 ) ;
#77 = ORIENTED_EDGE ( 'NONE', *, *, #147, .T. ) ;
#78 = PERSON_AND_ORGANIZATION ( #34, #102 ) ;
#79 = CC_DESIGN_DATE_AND_TIME_ASSIGNMENT ( #107, #98, ( #62 ) ) ;
#80 = PERSON_AND_ORGANIZATION ( #34, #102 ) ;
#81 = APPROVAL_PERSON_ORGANIZATION ( #80, #87, #23 ) ;
#82 = APPLICATION_PROTOCOL_DEFINITION ( 'international standard', 'config_control_design', 1994, #30 ) ;
#83 = LOCAL_TIME ( 13, 26, 10.00000000000000000, #92 ) ;
#84 = PERSON_AND_ORGANIZATION ( #34, #102 ) ;
#85 = COORDINATED_UNIVERSAL_TIME_OFFSET ( 7, 0, .BEHIND. ) ;
#86 = APPROVAL_ROLE ( '' ) ;
#87 = APPROVAL ( #88, 'UNSPECIFIED' ) ;
#88 = APPROVAL_STATUS ( 'not_yet_approved' ) ;
#89 = DATE_AND_TIME ( #76, #61 ) ;
#90 = CARTESIAN_POINT ( 'NONE',  ( 0.0000000000000000000, 0.0000000000000000000, 0.0000000000000000000 ) ) ;
#91 = AXIS2_PLACEMENT_3D ( 'NONE', #4, #149, #13 ) ;
#92 = COORDINATED_UNIVERSAL_TIME_OFFSET ( 7, 0, .BEHIND. ) ;
#93 = APPROVAL_ROLE ( '' ) ;
#94 = DIRECTION ( 'NONE',  ( 1.000000000000000000, 0.0000000000000000000, 0.0000000000000000000 ) ) ;
#95 = EDGE_CURVE ( 'NONE', #97, #130, #137, .T. ) ;
#96 = LOCAL_TIME ( 13, 26, 10.00000000000000000, #162 ) ;
#97 = VERTEX_POINT ( 'NONE', #103 ) ;
#98 = DATE_TIME_ROLE ( 'creation_date' ) ;
#99 = AXIS2_PLACEMENT_3D ( 'NONE', #151, #33, #8 ) ;
#100 = PERSON_AND_ORGANIZATION ( #34, #102 ) ;
#101 = PERSON_AND_ORGANIZATION ( #34, #102 ) ;
#102 = ORGANIZATION ( 'UNSPECIFIED', 'UNSPECIFIED', '' ) ;
#103 = CARTESIAN_POINT ( 'NONE',  ( -6.250000000000000000, 0.0000000000000000000, 1.000000000000000000 ) ) ;
#104 = DIRECTION ( 'NONE',  ( 1.000000000000000000, 0.0000000000000000000, 0.0000000000000000000 ) ) ;
#105 = AXIS2_PLACEMENT_3D ( 'NONE', #1, #38, #120 ) ;
#106 = DATE_AND_TIME ( #108, #111 ) ;
#107 = DATE_AND_TIME ( #74, #55 ) ;
#108 = CALENDAR_DATE ( 2017, 22, 5 ) ;
#109 =( NAMED_UNIT ( * ) PLANE_ANGLE_UNIT ( ) SI_UNIT ( $, .RADIAN. ) );
#110 = AXIS2_PLACEMENT_3D ( 'NONE', #146, #44, #94 ) ;
#111 = LOCAL_TIME ( 13, 26, 10.00000000000000000, #85 ) ;
#112 = APPROVAL ( #15, 'UNSPECIFIED' ) ;
#113 = CC_DESIGN_PERSON_AND_ORGANIZATION_ASSIGNMENT ( #100, #5, ( #138 ) ) ;
#114 = DIRECTION ( 'NONE',  ( 0.0000000000000000000, 0.0000000000000000000, 1.000000000000000000 ) ) ;
#115 = PERSON_AND_ORGANIZATION ( #34, #102 ) ;
#116 = ORIENTED_EDGE ( 'NONE', *, *, #95, .T. ) ;
#117 = DIRECTION ( 'NONE',  ( 0.0000000000000000000, 0.0000000000000000000, 1.000000000000000000 ) ) ;
#118 = CARTESIAN_POINT ( 'NONE',  ( 6.250000000000000000, 7.654042494670957600E-016, 1.000000000000000000 ) ) ;
#119 = DIRECTION ( 'NONE',  ( 1.000000000000000000, 0.0000000000000000000, 0.0000000000000000000 ) ) ;
#120 = DIRECTION ( 'NONE',  ( 1.000000000000000000, 0.0000000000000000000, 0.0000000000000000000 ) ) ;
#121 = DESIGN_CONTEXT ( 'detailed design', #133, 'design' ) ;
#122 = APPLICATION_PROTOCOL_DEFINITION ( 'international standard', 'config_control_design', 1994, #133 ) ;
#123 = ADVANCED_FACE ( 'NONE', ( #155 ), #49, .F. ) ;
#124 = CARTESIAN_POINT ( 'NONE',  ( 0.0000000000000000000, 0.0000000000000000000, 1.000000000000000000 ) ) ;
#125 = EDGE_CURVE ( 'NONE', #130, #97, #54, .T. ) ;
#126 = ADVANCED_FACE ( 'NONE', ( #141 ), #3, .T. ) ;
#127 = ADVANCED_FACE ( 'NONE', ( #158 ), #144, .T. ) ;
#128 = ORIENTED_EDGE ( 'NONE', *, *, #125, .F. ) ;
#129 = AXIS2_PLACEMENT_3D ( 'NONE', #63, #6, #143 ) ;
#130 = VERTEX_POINT ( 'NONE', #20 ) ;
#131 = CYLINDRICAL_SURFACE ( 'NONE', #99, 6.250000000000000000 ) ;
#132 = DIRECTION ( 'NONE',  ( 0.0000000000000000000, 0.0000000000000000000, 1.000000000000000000 ) ) ;
#133 = APPLICATION_CONTEXT ( 'configuration controlled 3d designs of mechanical parts and assemblies' ) ;
#134 = ADVANCED_FACE ( 'NONE', ( #136 ), #131, .T. ) ;
#135 = ORIENTED_EDGE ( 'NONE', *, *, #95, .F. ) ;
#136 = FACE_OUTER_BOUND ( 'NONE', #36, .T. ) ;
#137 = CIRCLE ( 'NONE', #165, 6.250000000000000000 ) ;
#138 = PRODUCT ( 'step_35940', 'step_35940', '', ( #9 ) ) ;
#139 = SECURITY_CLASSIFICATION_LEVEL ( 'unclassified' ) ;
#140 = LINE ( 'NONE', #66, #31 ) ;
#141 = FACE_OUTER_BOUND ( 'NONE', #152, .T. ) ;
#142 =( LENGTH_UNIT ( ) NAMED_UNIT ( * ) SI_UNIT ( .MILLI., .METRE. ) );
#143 = DIRECTION ( 'NONE',  ( -1.000000000000000000, 0.0000000000000000000, 0.0000000000000000000 ) ) ;
#144 = CYLINDRICAL_SURFACE ( 'NONE', #129, 6.250000000000000000 ) ;
#145 = ORIENTED_EDGE ( 'NONE', *, *, #147, .F. ) ;
#146 = CARTESIAN_POINT ( 'NONE',  ( 0.0000000000000000000, 0.0000000000000000000, 0.0000000000000000000 ) ) ;
#147 = EDGE_CURVE ( 'NONE', #97, #40, #140, .T. ) ;
#148 = CARTESIAN_POINT ( 'NONE',  ( 0.0000000000000000000, 0.0000000000000000000, 1.000000000000000000 ) ) ;
#149 = DIRECTION ( 'NONE',  ( 0.0000000000000000000, 0.0000000000000000000, 1.000000000000000000 ) ) ;
#150 = CARTESIAN_POINT ( 'NONE',  ( 6.250000000000000000, 7.654042494670957600E-016, 0.0000000000000000000 ) ) ;
#151 = CARTESIAN_POINT ( 'NONE',  ( 0.0000000000000000000, 0.0000000000000000000, 1.000000000000000000 ) ) ;
#152 = EDGE_LOOP ( 'NONE', ( #116, #59 ) ) ;
#153 = MANIFOLD_SOLID_BREP ( 'Boss-Extrude1', #170 ) ;
#154 = DIRECTION ( 'NONE',  ( -0.0000000000000000000, -0.0000000000000000000, -1.000000000000000000 ) ) ;
#155 = FACE_OUTER_BOUND ( 'NONE', #42, .T. ) ;
#156 = VERTEX_POINT ( 'NONE', #150 ) ;
#157 = EDGE_LOOP ( 'NONE', ( #159, #135, #77, #172 ) ) ;
#158 = FACE_OUTER_BOUND ( 'NONE', #157, .T. ) ;
#159 = ORIENTED_EDGE ( 'NONE', *, *, #53, .F. ) ;
#160 = EDGE_CURVE ( 'NONE', #156, #40, #24, .T. ) ;
#161 = DATE_AND_TIME ( #56, #96 ) ;
#162 = COORDINATED_UNIVERSAL_TIME_OFFSET ( 7, 0, .BEHIND. ) ;
#163 = ADVANCED_BREP_SHAPE_REPRESENTATION ( 'step_35940', ( #153, #168 ), #166 ) ;
#164 = COORDINATED_UNIVERSAL_TIME_OFFSET ( 7, 0, .BEHIND. ) ;
#165 = AXIS2_PLACEMENT_3D ( 'NONE', #148, #117, #17 ) ;
#166 =( GEOMETRIC_REPRESENTATION_CONTEXT ( 3 ) GLOBAL_UNCERTAINTY_ASSIGNED_CONTEXT ( ( #68 ) ) GLOBAL_UNIT_ASSIGNED_CONTEXT ( ( #142, #109, #12 ) ) REPRESENTATION_CONTEXT ( 'NONE', 'WORKASPACE' ) );
#167 = DIRECTION ( 'NONE',  ( 1.000000000000000000, 0.0000000000000000000, -0.0000000000000000000 ) ) ;
#168 = AXIS2_PLACEMENT_3D ( 'NONE', #47, #114, #104 ) ;
#169 = ORIENTED_EDGE ( 'NONE', *, *, #160, .T. ) ;
#170 = CLOSED_SHELL ( 'NONE', ( #134, #127, #126, #123 ) ) ;
#171 = ORIENTED_EDGE ( 'NONE', *, *, #173, .F. ) ;
#172 = ORIENTED_EDGE ( 'NONE', *, *, #173, .T. ) ;
#173 = EDGE_CURVE ( 'NONE', #40, #156, #18, .T. ) ;
#174 = ORIENTED_EDGE ( 'NONE', *, *, #53, .T. ) ;
#175 = AXIS2_PLACEMENT_3D ( 'NONE', #124, #132, #119 ) ;
ENDSEC;
END-ISO-10303-21;
