ISO-10303-21;
HEADER;
FILE_DESCRIPTION (( 'STEP AP203' ),
    '1' );
FILE_NAME ('Web Model 48459MX_48462.step',
    '2017-10-30T13:22:50',
    ( '' ),
    ( '' ),
    'SwSTEP 2.0',
    'SolidWorks 2016',
    '' );
FILE_SCHEMA (( 'CONFIG_CONTROL_DESIGN' ));
ENDSEC;

DATA;
#1 = DATE_TIME_ROLE ( 'creation_date' ) ;
#2 = PERSON_AND_ORGANIZATION_ROLE ( 'creator' ) ;
#3 = ADVANCED_FACE ( 'NONE', ( #13 ), #158, .F. ) ;
#4 = APPROVAL ( #237, 'UNSPECIFIED' ) ;
#5 = EDGE_CURVE ( 'NONE', #211, #83, #145, .T. ) ;
#6 = VERTEX_POINT ( 'NONE', #105 ) ;
#7 = LINE ( 'NONE', #138, #35 ) ;
#8 = AXIS2_PLACEMENT_3D ( 'NONE', #179, #95, #98 ) ;
#9 = DIRECTION ( 'NONE',  ( -0.0000000000000000000, -0.0000000000000000000, -1.000000000000000000 ) ) ;
#10 = ORIENTED_EDGE ( 'NONE', *, *, #5, .T. ) ;
#11 = APPROVAL_PERSON_ORGANIZATION ( #177, #79, #77 ) ;
#12 = SECURITY_CLASSIFICATION ( '', '', #164 ) ;
#13 = FACE_OUTER_BOUND ( 'NONE', #172, .T. ) ;
#14 = DIRECTION ( 'NONE',  ( -0.0000000000000000000, -0.0000000000000000000, -1.000000000000000000 ) ) ;
#15 = EDGE_CURVE ( 'NONE', #6, #80, #96, .T. ) ;
#16 = LOCAL_TIME ( 9, 22, 50.00000000000000000, #107 ) ;
#17 = ORIENTED_EDGE ( 'NONE', *, *, #28, .T. ) ;
#18 = APPLICATION_PROTOCOL_DEFINITION ( 'international standard', 'config_control_design', 1994, #38 ) ;
#19 = FACE_OUTER_BOUND ( 'NONE', #184, .T. ) ;
#20 = COORDINATED_UNIVERSAL_TIME_OFFSET ( 5, 0, .BEHIND. ) ;
#21 = PRODUCT_DEFINITION ( 'UNKNOWN', '', #109, #157 ) ;
#22 = ORIENTED_EDGE ( 'NONE', *, *, #155, .F. ) ;
#23 = EDGE_CURVE ( 'NONE', #80, #215, #224, .T. ) ;
#24 = ORIENTED_EDGE ( 'NONE', *, *, #63, .F. ) ;
#25 = DATE_AND_TIME ( #73, #16 ) ;
#26 = ORGANIZATION ( 'UNSPECIFIED', 'UNSPECIFIED', '' ) ;
#27 = PERSON_AND_ORGANIZATION ( #170, #26 ) ;
#28 = EDGE_CURVE ( 'NONE', #64, #80, #212, .T. ) ;
#29 = ORIENTED_EDGE ( 'NONE', *, *, #15, .F. ) ;
#30 = CC_DESIGN_SECURITY_CLASSIFICATION ( #12, ( #109 ) ) ;
#31 = CARTESIAN_POINT ( 'NONE',  ( -25.00000000000000400, 24.99999999999999600, 4.750000000000000000 ) ) ;
#32 = ORIENTED_EDGE ( 'NONE', *, *, #84, .F. ) ;
#33 = DIRECTION ( 'NONE',  ( 1.000000000000000000, 1.387778780781445700E-016, 0.0000000000000000000 ) ) ;
#34 = DIRECTION ( 'NONE',  ( 0.0000000000000000000, 0.0000000000000000000, -1.000000000000000000 ) ) ;
#35 = VECTOR ( 'NONE', #47, 1000.000000000000000 ) ;
#36 = CARTESIAN_POINT ( 'NONE',  ( -25.00000000000000400, -25.00000000000000400, 4.750000000000000000 ) ) ;
#37 = CC_DESIGN_PERSON_AND_ORGANIZATION_ASSIGNMENT ( #45, #2, ( #109 ) ) ;
#38 = APPLICATION_CONTEXT ( 'configuration controlled 3d designs of mechanical parts and assemblies' ) ;
#39 = CC_DESIGN_PERSON_AND_ORGANIZATION_ASSIGNMENT ( #159, #41, ( #12 ) ) ;
#40 = DATE_AND_TIME ( #134, #149 ) ;
#41 = PERSON_AND_ORGANIZATION_ROLE ( 'classification_officer' ) ;
#42 = COORDINATED_UNIVERSAL_TIME_OFFSET ( 5, 0, .BEHIND. ) ;
#43 = EDGE_CURVE ( 'NONE', #6, #211, #160, .T. ) ;
#44 = CALENDAR_DATE ( 2017, 30, 10 ) ;
#45 = PERSON_AND_ORGANIZATION ( #170, #26 ) ;
#46 = SHAPE_DEFINITION_REPRESENTATION ( #165, #114 ) ;
#47 = DIRECTION ( 'NONE',  ( -0.0000000000000000000, -0.0000000000000000000, -1.000000000000000000 ) ) ;
#48 = DIRECTION ( 'NONE',  ( -0.0000000000000000000, -1.000000000000000000, -0.0000000000000000000 ) ) ;
#49 = EDGE_LOOP ( 'NONE', ( #188, #10, #133, #127 ) ) ;
#50 = CC_DESIGN_DATE_AND_TIME_ASSIGNMENT ( #40, #1, ( #21 ) ) ;
#51 = DIRECTION ( 'NONE',  ( 0.0000000000000000000, -0.0000000000000000000, 1.000000000000000000 ) ) ;
#52 = CARTESIAN_POINT ( 'NONE',  ( 0.0000000000000000000, 0.0000000000000000000, -4.750000000000000000 ) ) ;
#53 = CARTESIAN_POINT ( 'NONE',  ( 24.99999999999999600, 25.00000000000000400, 4.750000000000000000 ) ) ;
#54 = PLANE ( 'NONE',  #93 ) ;
#55 = AXIS2_PLACEMENT_3D ( 'NONE', #232, #91, #33 ) ;
#56 = CARTESIAN_POINT ( 'NONE',  ( -25.00000000000000400, -25.00000000000000400, 4.750000000000000000 ) ) ;
#57 = DIRECTION ( 'NONE',  ( -1.000000000000000000, -1.387778780781445700E-016, 0.0000000000000000000 ) ) ;
#58 = ORIENTED_EDGE ( 'NONE', *, *, #43, .F. ) ;
#59 = CALENDAR_DATE ( 2017, 30, 10 ) ;
#60 = VECTOR ( 'NONE', #48, 1000.000000000000000 ) ;
#61 = AXIS2_PLACEMENT_3D ( 'NONE', #52, #51, #176 ) ;
#62 = PERSON_AND_ORGANIZATION ( #170, #26 ) ;
#63 = EDGE_CURVE ( 'NONE', #83, #120, #7, .T. ) ;
#64 = VERTEX_POINT ( 'NONE', #86 ) ;
#65 = LINE ( 'NONE', #85, #115 ) ;
#66 = VECTOR ( 'NONE', #192, 1000.000000000000000 ) ;
#67 = ORIENTED_EDGE ( 'NONE', *, *, #180, .F. ) ;
#68 = CARTESIAN_POINT ( 'NONE',  ( 0.0000000000000000000, 0.0000000000000000000, 4.750000000000000000 ) ) ;
#69 = DIRECTION ( 'NONE',  ( 1.000000000000000000, 0.0000000000000000000, -0.0000000000000000000 ) ) ;
#70 = CARTESIAN_POINT ( 'NONE',  ( 24.99999999999999600, 25.00000000000000400, 4.750000000000000000 ) ) ;
#71 = CARTESIAN_POINT ( 'NONE',  ( 24.99999999999999600, -24.99999999999999600, -4.750000000000000000 ) ) ;
#72 = DIRECTION ( 'NONE',  ( -1.000000000000000000, 0.0000000000000000000, 0.0000000000000000000 ) ) ;
#73 = CALENDAR_DATE ( 2017, 30, 10 ) ;
#74 = CARTESIAN_POINT ( 'NONE',  ( -25.00000000000000400, -25.00000000000000400, -4.750000000000000000 ) ) ;
#75 = CC_DESIGN_DATE_AND_TIME_ASSIGNMENT ( #25, #148, ( #12 ) ) ;
#76 = ORIENTED_EDGE ( 'NONE', *, *, #63, .T. ) ;
#77 = APPROVAL_ROLE ( '' ) ;
#78 = ADVANCED_FACE ( 'NONE', ( #113 ), #197, .T. ) ;
#79 = APPROVAL ( #183, 'UNSPECIFIED' ) ;
#80 = VERTEX_POINT ( 'NONE', #142 ) ;
#81 = LINE ( 'NONE', #71, #128 ) ;
#82 = DATE_AND_TIME ( #44, #171 ) ;
#83 = VERTEX_POINT ( 'NONE', #103 ) ;
#84 = EDGE_CURVE ( 'NONE', #83, #163, #222, .T. ) ;
#85 = CARTESIAN_POINT ( 'NONE',  ( -25.00000000000000400, -25.00000000000000400, 4.750000000000000000 ) ) ;
#86 = CARTESIAN_POINT ( 'NONE',  ( 24.99999999999999600, 25.00000000000000400, -4.750000000000000000 ) ) ;
#87 = CARTESIAN_POINT ( 'NONE',  ( 24.99999999999999600, 25.00000000000000400, 4.750000000000000000 ) ) ;
#88 = EDGE_CURVE ( 'NONE', #163, #64, #216, .T. ) ;
#89 = DIRECTION ( 'NONE',  ( 1.000000000000000000, 1.387778780781445700E-016, -0.0000000000000000000 ) ) ;
#90 = LINE ( 'NONE', #53, #151 ) ;
#91 = DIRECTION ( 'NONE',  ( 1.387778780781445700E-016, -1.000000000000000000, 0.0000000000000000000 ) ) ;
#92 =( NAMED_UNIT ( * ) PLANE_ANGLE_UNIT ( ) SI_UNIT ( $, .RADIAN. ) );
#93 = AXIS2_PLACEMENT_3D ( 'NONE', #146, #147, #233 ) ;
#94 = PERSON_AND_ORGANIZATION ( #170, #26 ) ;
#95 = DIRECTION ( 'NONE',  ( 0.0000000000000000000, 0.0000000000000000000, 1.000000000000000000 ) ) ;
#96 = LINE ( 'NONE', #31, #122 ) ;
#97 = ORIENTED_EDGE ( 'NONE', *, *, #88, .F. ) ;
#98 = DIRECTION ( 'NONE',  ( 1.000000000000000000, 0.0000000000000000000, 0.0000000000000000000 ) ) ;
#99 = AXIS2_PLACEMENT_3D ( 'NONE', #36, #198, #34 ) ;
#100 = PERSON_AND_ORGANIZATION_ROLE ( 'creator' ) ;
#101 = ORIENTED_EDGE ( 'NONE', *, *, #28, .F. ) ;
#102 = COORDINATED_UNIVERSAL_TIME_OFFSET ( 5, 0, .BEHIND. ) ;
#103 = CARTESIAN_POINT ( 'NONE',  ( 24.99999999999999600, -24.99999999999999600, 4.750000000000000000 ) ) ;
#104 = ORIENTED_EDGE ( 'NONE', *, *, #162, .F. ) ;
#105 = CARTESIAN_POINT ( 'NONE',  ( -25.00000000000000400, 24.99999999999999600, 4.750000000000000000 ) ) ;
#106 = DIRECTION ( 'NONE',  ( 1.000000000000000000, 1.387778780781445700E-016, -0.0000000000000000000 ) ) ;
#107 = COORDINATED_UNIVERSAL_TIME_OFFSET ( 5, 0, .BEHIND. ) ;
#108 = MECHANICAL_CONTEXT ( 'NONE', #125, 'mechanical' ) ;
#109 = PRODUCT_DEFINITION_FORMATION_WITH_SPECIFIED_SOURCE ( 'ANY', '', #221, .NOT_KNOWN. ) ;
#110 = PERSON_AND_ORGANIZATION_ROLE ( 'design_owner' ) ;
#111 = CC_DESIGN_APPROVAL ( #79, ( #21 ) ) ;
#112 = UNCERTAINTY_MEASURE_WITH_UNIT (LENGTH_MEASURE( 1.000000000000000100E-005 ), #235, 'distance_accuracy_value', 'NONE');
#113 = FACE_OUTER_BOUND ( 'NONE', #49, .T. ) ;
#114 = ADVANCED_BREP_SHAPE_REPRESENTATION ( 'Web Model 48459MX_48462', ( #234, #8 ), #218 ) ;
#115 = VECTOR ( 'NONE', #9, 1000.000000000000000 ) ;
#116 = PERSON_AND_ORGANIZATION ( #170, #26 ) ;
#117 = VECTOR ( 'NONE', #106, 1000.000000000000000 ) ;
#118 = DIRECTION ( 'NONE',  ( -0.0000000000000000000, -0.0000000000000000000, -1.000000000000000000 ) ) ;
#119 = CARTESIAN_POINT ( 'NONE',  ( -25.00000000000000400, -25.00000000000000400, -4.750000000000000000 ) ) ;
#120 = VERTEX_POINT ( 'NONE', #178 ) ;
#121 = APPROVAL_DATE_TIME ( #173, #4 ) ;
#122 = VECTOR ( 'NONE', #14, 1000.000000000000000 ) ;
#123 = ORIENTED_EDGE ( 'NONE', *, *, #162, .T. ) ;
#124 =( NAMED_UNIT ( * ) SI_UNIT ( $, .STERADIAN. ) SOLID_ANGLE_UNIT ( ) );
#125 = APPLICATION_CONTEXT ( 'configuration controlled 3d designs of mechanical parts and assemblies' ) ;
#126 = CC_DESIGN_APPROVAL ( #209, ( #12 ) ) ;
#127 = ORIENTED_EDGE ( 'NONE', *, *, #180, .T. ) ;
#128 = VECTOR ( 'NONE', #175, 1000.000000000000000 ) ;
#129 = APPROVAL_DATE_TIME ( #82, #209 ) ;
#130 = APPLICATION_PROTOCOL_DEFINITION ( 'international standard', 'config_control_design', 1994, #125 ) ;
#131 = ADVANCED_FACE ( 'NONE', ( #195 ), #141, .F. ) ;
#132 = EDGE_LOOP ( 'NONE', ( #135, #101, #174, #22 ) ) ;
#133 = ORIENTED_EDGE ( 'NONE', *, *, #84, .T. ) ;
#134 = CALENDAR_DATE ( 2017, 30, 10 ) ;
#135 = ORIENTED_EDGE ( 'NONE', *, *, #23, .F. ) ;
#136 = EDGE_CURVE ( 'NONE', #120, #64, #81, .T. ) ;
#137 = CARTESIAN_POINT ( 'NONE',  ( 24.99999999999999600, -24.99999999999999600, -4.750000000000000000 ) ) ;
#138 = CARTESIAN_POINT ( 'NONE',  ( 24.99999999999999600, -24.99999999999999600, 4.750000000000000000 ) ) ;
#139 = CARTESIAN_POINT ( 'NONE',  ( 24.99999999999999600, 25.00000000000000400, -4.750000000000000000 ) ) ;
#140 = EDGE_LOOP ( 'NONE', ( #231, #104, #58, #194 ) ) ;
#141 = PLANE ( 'NONE',  #61 ) ;
#142 = CARTESIAN_POINT ( 'NONE',  ( -25.00000000000000400, 24.99999999999999600, -4.750000000000000000 ) ) ;
#143 = AXIS2_PLACEMENT_3D ( 'NONE', #68, #161, #69 ) ;
#144 = PLANE ( 'NONE',  #99 ) ;
#145 = LINE ( 'NONE', #193, #117 ) ;
#146 = CARTESIAN_POINT ( 'NONE',  ( 24.99999999999999600, -24.99999999999999600, 4.750000000000000000 ) ) ;
#147 = DIRECTION ( 'NONE',  ( -1.387778780781445700E-016, 1.000000000000000000, 0.0000000000000000000 ) ) ;
#148 = DATE_TIME_ROLE ( 'classification_date' ) ;
#149 = LOCAL_TIME ( 9, 22, 50.00000000000000000, #102 ) ;
#150 = PERSON_AND_ORGANIZATION_ROLE ( 'design_supplier' ) ;
#151 = VECTOR ( 'NONE', #57, 1000.000000000000000 ) ;
#152 = LINE ( 'NONE', #137, #220 ) ;
#153 = CC_DESIGN_PERSON_AND_ORGANIZATION_ASSIGNMENT ( #62, #100, ( #21 ) ) ;
#154 = LOCAL_TIME ( 9, 22, 50.00000000000000000, #201 ) ;
#155 = EDGE_CURVE ( 'NONE', #215, #120, #152, .T. ) ;
#156 = CARTESIAN_POINT ( 'NONE',  ( 24.99999999999999600, -24.99999999999999600, 4.750000000000000000 ) ) ;
#157 = DESIGN_CONTEXT ( 'detailed design', #38, 'design' ) ;
#158 = PLANE ( 'NONE',  #55 ) ;
#159 = PERSON_AND_ORGANIZATION ( #170, #26 ) ;
#160 = LINE ( 'NONE', #227, #60 ) ;
#161 = DIRECTION ( 'NONE',  ( 0.0000000000000000000, -0.0000000000000000000, 1.000000000000000000 ) ) ;
#162 = EDGE_CURVE ( 'NONE', #211, #215, #65, .T. ) ;
#163 = VERTEX_POINT ( 'NONE', #70 ) ;
#164 = SECURITY_CLASSIFICATION_LEVEL ( 'unclassified' ) ;
#165 = PRODUCT_DEFINITION_SHAPE ( 'NONE', 'NONE',  #21 ) ;
#166 = APPROVAL_ROLE ( '' ) ;
#167 = VECTOR ( 'NONE', #228, 1000.000000000000000 ) ;
#168 = ADVANCED_FACE ( 'NONE', ( #19 ), #54, .F. ) ;
#169 = EDGE_LOOP ( 'NONE', ( #217, #97, #32, #76 ) ) ;
#170 = PERSON ( 'UNSPECIFIED', 'UNSPECIFIED', 'UNSPECIFIED', ('UNSPECIFIED'), ('UNSPECIFIED'), ('UNSPECIFIED') ) ;
#171 = LOCAL_TIME ( 9, 22, 50.00000000000000000, #20 ) ;
#172 = EDGE_LOOP ( 'NONE', ( #17, #29, #67, #190 ) ) ;
#173 = DATE_AND_TIME ( #223, #206 ) ;
#174 = ORIENTED_EDGE ( 'NONE', *, *, #136, .F. ) ;
#175 = DIRECTION ( 'NONE',  ( 0.0000000000000000000, 1.000000000000000000, 0.0000000000000000000 ) ) ;
#176 = DIRECTION ( 'NONE',  ( 1.000000000000000000, 0.0000000000000000000, -0.0000000000000000000 ) ) ;
#177 = PERSON_AND_ORGANIZATION ( #170, #26 ) ;
#178 = CARTESIAN_POINT ( 'NONE',  ( 24.99999999999999600, -24.99999999999999600, -4.750000000000000000 ) ) ;
#179 = CARTESIAN_POINT ( 'NONE',  ( 0.0000000000000000000, 0.0000000000000000000, 0.0000000000000000000 ) ) ;
#180 = EDGE_CURVE ( 'NONE', #163, #6, #90, .T. ) ;
#181 = CARTESIAN_POINT ( 'NONE',  ( 24.99999999999999600, -24.99999999999999600, 4.750000000000000000 ) ) ;
#182 = APPROVAL_STATUS ( 'not_yet_approved' ) ;
#183 = APPROVAL_STATUS ( 'not_yet_approved' ) ;
#184 = EDGE_LOOP ( 'NONE', ( #226, #24, #207, #123 ) ) ;
#185 = FACE_OUTER_BOUND ( 'NONE', #169, .T. ) ;
#186 = CC_DESIGN_APPROVAL ( #4, ( #109 ) ) ;
#187 = PERSON_AND_ORGANIZATION ( #170, #26 ) ;
#188 = ORIENTED_EDGE ( 'NONE', *, *, #43, .T. ) ;
#189 = AXIS2_PLACEMENT_3D ( 'NONE', #181, #72, #199 ) ;
#190 = ORIENTED_EDGE ( 'NONE', *, *, #88, .T. ) ;
#191 = APPROVAL_PERSON_ORGANIZATION ( #27, #4, #204 ) ;
#192 = DIRECTION ( 'NONE',  ( -0.0000000000000000000, -1.000000000000000000, -0.0000000000000000000 ) ) ;
#193 = CARTESIAN_POINT ( 'NONE',  ( 24.99999999999999600, -24.99999999999999600, 4.750000000000000000 ) ) ;
#194 = ORIENTED_EDGE ( 'NONE', *, *, #15, .T. ) ;
#195 = FACE_OUTER_BOUND ( 'NONE', #132, .T. ) ;
#196 = VECTOR ( 'NONE', #230, 1000.000000000000000 ) ;
#197 = PLANE ( 'NONE',  #143 ) ;
#198 = DIRECTION ( 'NONE',  ( 1.000000000000000000, 0.0000000000000000000, 0.0000000000000000000 ) ) ;
#199 = DIRECTION ( 'NONE',  ( 0.0000000000000000000, 0.0000000000000000000, 1.000000000000000000 ) ) ;
#200 = CLOSED_SHELL ( 'NONE', ( #203, #168, #205, #3, #78, #131 ) ) ;
#201 = COORDINATED_UNIVERSAL_TIME_OFFSET ( 5, 0, .BEHIND. ) ;
#202 = VECTOR ( 'NONE', #118, 1000.000000000000000 ) ;
#203 = ADVANCED_FACE ( 'NONE', ( #219 ), #144, .F. ) ;
#204 = APPROVAL_ROLE ( '' ) ;
#205 = ADVANCED_FACE ( 'NONE', ( #185 ), #214, .F. ) ;
#206 = LOCAL_TIME ( 9, 22, 50.00000000000000000, #42 ) ;
#207 = ORIENTED_EDGE ( 'NONE', *, *, #5, .F. ) ;
#208 = APPROVAL_DATE_TIME ( #213, #79 ) ;
#209 = APPROVAL ( #182, 'UNSPECIFIED' ) ;
#210 = APPROVAL_PERSON_ORGANIZATION ( #187, #209, #166 ) ;
#211 = VERTEX_POINT ( 'NONE', #56 ) ;
#212 = LINE ( 'NONE', #139, #196 ) ;
#213 = DATE_AND_TIME ( #59, #154 ) ;
#214 = PLANE ( 'NONE',  #189 ) ;
#215 = VERTEX_POINT ( 'NONE', #74 ) ;
#216 = LINE ( 'NONE', #87, #202 ) ;
#217 = ORIENTED_EDGE ( 'NONE', *, *, #136, .T. ) ;
#218 =( GEOMETRIC_REPRESENTATION_CONTEXT ( 3 ) GLOBAL_UNCERTAINTY_ASSIGNED_CONTEXT ( ( #112 ) ) GLOBAL_UNIT_ASSIGNED_CONTEXT ( ( #235, #92, #124 ) ) REPRESENTATION_CONTEXT ( 'NONE', 'WORKASPACE' ) );
#219 = FACE_OUTER_BOUND ( 'NONE', #140, .T. ) ;
#220 = VECTOR ( 'NONE', #89, 1000.000000000000000 ) ;
#221 = PRODUCT ( 'Web Model 48459MX_48462', 'Web Model 48459MX_48462', '', ( #108 ) ) ;
#222 = LINE ( 'NONE', #156, #167 ) ;
#223 = CALENDAR_DATE ( 2017, 30, 10 ) ;
#224 = LINE ( 'NONE', #119, #66 ) ;
#225 = CC_DESIGN_PERSON_AND_ORGANIZATION_ASSIGNMENT ( #94, #110, ( #221 ) ) ;
#226 = ORIENTED_EDGE ( 'NONE', *, *, #155, .T. ) ;
#227 = CARTESIAN_POINT ( 'NONE',  ( -25.00000000000000400, -25.00000000000000400, 4.750000000000000000 ) ) ;
#228 = DIRECTION ( 'NONE',  ( 0.0000000000000000000, 1.000000000000000000, 0.0000000000000000000 ) ) ;
#229 = PRODUCT_RELATED_PRODUCT_CATEGORY ( 'detail', '', ( #221 ) ) ;
#230 = DIRECTION ( 'NONE',  ( -1.000000000000000000, -1.387778780781445700E-016, 0.0000000000000000000 ) ) ;
#231 = ORIENTED_EDGE ( 'NONE', *, *, #23, .T. ) ;
#232 = CARTESIAN_POINT ( 'NONE',  ( 24.99999999999999600, 25.00000000000000400, 4.750000000000000000 ) ) ;
#233 = DIRECTION ( 'NONE',  ( -1.000000000000000000, -1.387778780781445700E-016, 0.0000000000000000000 ) ) ;
#234 = MANIFOLD_SOLID_BREP ( 'Boss-Extrude1', #200 ) ;
#235 =( LENGTH_UNIT ( ) NAMED_UNIT ( * ) SI_UNIT ( .MILLI., .METRE. ) );
#236 = CC_DESIGN_PERSON_AND_ORGANIZATION_ASSIGNMENT ( #116, #150, ( #109 ) ) ;
#237 = APPROVAL_STATUS ( 'not_yet_approved' ) ;
ENDSEC;
END-ISO-10303-21;
