ISO-10303-21;
HEADER;
FILE_DESCRIPTION (( 'STEP AP203' ),
    '1' );
FILE_NAME ('Web Model 15403_15785.step',
    '2020-11-04T13:39:57',
    ( '' ),
    ( '' ),
    'SwSTEP 2.0',
    'SolidWorks 2018',
    '' );
FILE_SCHEMA (( 'CONFIG_CONTROL_DESIGN' ));
ENDSEC;

DATA;
#1 = APPROVAL_PERSON_ORGANIZATION ( #61, #27, #86 ) ;
#2 = DIRECTION ( 'NONE',  ( 1.000000000000000000, 0.0000000000000000000, 0.0000000000000000000 ) ) ;
#3 = ORIENTED_EDGE ( 'NONE', *, *, #83, .T. ) ;
#4 = LOCAL_TIME ( 8, 39, 57.00000000000000000, #167 ) ;
#5 = MANIFOLD_SOLID_BREP ( 'Boss-Extrude1', #96 ) ;
#6 = PRODUCT_DEFINITION ( 'UNKNOWN', '', #144, #139 ) ;
#7 = CARTESIAN_POINT ( 'NONE',  ( 1.500000000000000000, 0.0000000000000000000, 12.69999999999999929 ) ) ;
#8 = DIRECTION ( 'NONE',  ( -1.000000000000000000, -0.0000000000000000000, -0.0000000000000000000 ) ) ;
#9 = ORIENTED_EDGE ( 'NONE', *, *, #75, .T. ) ;
#10 = DIRECTION ( 'NONE',  ( 0.0000000000000000000, 0.0000000000000000000, -1.000000000000000000 ) ) ;
#11 = ORIENTED_EDGE ( 'NONE', *, *, #75, .F. ) ;
#12 = CALENDAR_DATE ( 2020, 4, 11 ) ;
#13 = ORIENTED_EDGE ( 'NONE', *, *, #107, .T. ) ;
#14 = AXIS2_PLACEMENT_3D ( 'NONE', #18, #169, #17 ) ;
#15 = PERSON_AND_ORGANIZATION ( #44, #127 ) ;
#16 = APPROVAL_STATUS ( 'not_yet_approved' ) ;
#17 = DIRECTION ( 'NONE',  ( 0.0000000000000000000, 0.0000000000000000000, -1.000000000000000000 ) ) ;
#18 = CARTESIAN_POINT ( 'NONE',  ( 1.500000000000000000, 0.0000000000000000000, 0.0000000000000000000 ) ) ;
#19 = AXIS2_PLACEMENT_3D ( 'NONE', #112, #8, #153 ) ;
#20 = CIRCLE ( 'NONE', #130, 12.69999999999999929 ) ;
#21 = DIRECTION ( 'NONE',  ( 1.000000000000000000, 0.0000000000000000000, 0.0000000000000000000 ) ) ;
#22 = CC_DESIGN_PERSON_AND_ORGANIZATION_ASSIGNMENT ( #95, #72, ( #6 ) ) ;
#23 = CARTESIAN_POINT ( 'NONE',  ( 1.500000000000000000, 1.555301434917138433E-15, -12.69999999999999929 ) ) ;
#24 = CALENDAR_DATE ( 2020, 4, 11 ) ;
#25 = PLANE ( 'NONE',  #125 ) ;
#26 = FACE_OUTER_BOUND ( 'NONE', #117, .T. ) ;
#27 = APPROVAL ( #32, 'UNSPECIFIED' ) ;
#28 = FACE_OUTER_BOUND ( 'NONE', #124, .T. ) ;
#29 = CARTESIAN_POINT ( 'NONE',  ( 0.0000000000000000000, 0.0000000000000000000, 0.0000000000000000000 ) ) ;
#30 =( NAMED_UNIT ( * ) PLANE_ANGLE_UNIT ( ) SI_UNIT ( $, .RADIAN. ) );
#31 = EDGE_LOOP ( 'NONE', ( #113, #13, #51, #151 ) ) ;
#32 = APPROVAL_STATUS ( 'not_yet_approved' ) ;
#33 = CC_DESIGN_DATE_AND_TIME_ASSIGNMENT ( #66, #74, ( #162 ) ) ;
#34 = CIRCLE ( 'NONE', #122, 12.69999999999999929 ) ;
#35 = DIRECTION ( 'NONE',  ( 0.0000000000000000000, 0.0000000000000000000, -1.000000000000000000 ) ) ;
#36 = CARTESIAN_POINT ( 'NONE',  ( 1.500000000000000000, 1.555301434917138433E-15, -12.69999999999999929 ) ) ;
#37 = CARTESIAN_POINT ( 'NONE',  ( 1.500000000000000000, 0.0000000000000000000, 0.0000000000000000000 ) ) ;
#38 = VERTEX_POINT ( 'NONE', #36 ) ;
#39 = DIRECTION ( 'NONE',  ( -1.000000000000000000, -0.0000000000000000000, -0.0000000000000000000 ) ) ;
#40 = DIRECTION ( 'NONE',  ( -1.000000000000000000, -0.0000000000000000000, -0.0000000000000000000 ) ) ;
#41 = DIRECTION ( 'NONE',  ( 1.000000000000000000, 0.0000000000000000000, 0.0000000000000000000 ) ) ;
#42 = COORDINATED_UNIVERSAL_TIME_OFFSET ( 5, 0, .BEHIND. ) ;
#43 = AXIS2_PLACEMENT_3D ( 'NONE', #29, #132, #2 ) ;
#44 = PERSON ( 'UNSPECIFIED', 'UNSPECIFIED', 'UNSPECIFIED', ('UNSPECIFIED'), ('UNSPECIFIED'), ('UNSPECIFIED') ) ;
#45 = APPROVAL_DATE_TIME ( #84, #46 ) ;
#46 = APPROVAL ( #16, 'UNSPECIFIED' ) ;
#47 = APPLICATION_PROTOCOL_DEFINITION ( 'international standard', 'config_control_design', 1994, #159 ) ;
#48 = CIRCLE ( 'NONE', #92, 12.69999999999999929 ) ;
#49 = MECHANICAL_CONTEXT ( 'NONE', #159, 'mechanical' ) ;
#50 = APPROVAL_ROLE ( '' ) ;
#51 = ORIENTED_EDGE ( 'NONE', *, *, #142, .T. ) ;
#52 = DATE_TIME_ROLE ( 'creation_date' ) ;
#53 = COORDINATED_UNIVERSAL_TIME_OFFSET ( 5, 0, .BEHIND. ) ;
#54 = CARTESIAN_POINT ( 'NONE',  ( 1.500000000000000000, 0.0000000000000000000, 0.0000000000000000000 ) ) ;
#55 = APPROVAL_PERSON_ORGANIZATION ( #150, #118, #50 ) ;
#56 = CC_DESIGN_APPROVAL ( #46, ( #162 ) ) ;
#57 = PRODUCT_DEFINITION_SHAPE ( 'NONE', 'NONE',  #6 ) ;
#58 = COORDINATED_UNIVERSAL_TIME_OFFSET ( 5, 0, .BEHIND. ) ;
#59 = DIRECTION ( 'NONE',  ( 1.000000000000000000, 0.0000000000000000000, 0.0000000000000000000 ) ) ;
#60 = CC_DESIGN_PERSON_AND_ORGANIZATION_ASSIGNMENT ( #164, #119, ( #144 ) ) ;
#61 = PERSON_AND_ORGANIZATION ( #44, #127 ) ;
#62 = CC_DESIGN_APPROVAL ( #27, ( #144 ) ) ;
#63 = ADVANCED_BREP_SHAPE_REPRESENTATION ( 'Web Model 15403_15785', ( #5, #43 ), #100 ) ;
#64 = APPROVAL_DATE_TIME ( #71, #27 ) ;
#65 = FACE_OUTER_BOUND ( 'NONE', #161, .T. ) ;
#66 = DATE_AND_TIME ( #109, #145 ) ;
#67 = DIRECTION ( 'NONE',  ( 0.0000000000000000000, 0.0000000000000000000, -1.000000000000000000 ) ) ;
#68 = PRODUCT_RELATED_PRODUCT_CATEGORY ( 'detail', '', ( #129 ) ) ;
#69 = CARTESIAN_POINT ( 'NONE',  ( -1.500000000000000000, 0.0000000000000000000, 12.69999999999999929 ) ) ;
#70 = CC_DESIGN_PERSON_AND_ORGANIZATION_ASSIGNMENT ( #131, #73, ( #144 ) ) ;
#71 = DATE_AND_TIME ( #111, #134 ) ;
#72 = PERSON_AND_ORGANIZATION_ROLE ( 'creator' ) ;
#73 = PERSON_AND_ORGANIZATION_ROLE ( 'creator' ) ;
#74 = DATE_TIME_ROLE ( 'classification_date' ) ;
#75 = EDGE_CURVE ( 'NONE', #77, #38, #20, .T. ) ;
#76 = CYLINDRICAL_SURFACE ( 'NONE', #141, 12.69999999999999929 ) ;
#77 = VERTEX_POINT ( 'NONE', #7 ) ;
#78 = CC_DESIGN_APPROVAL ( #118, ( #6 ) ) ;
#79 = DIRECTION ( 'NONE',  ( 0.0000000000000000000, 0.0000000000000000000, -1.000000000000000000 ) ) ;
#80 = DIRECTION ( 'NONE',  ( 1.000000000000000000, 0.0000000000000000000, 0.0000000000000000000 ) ) ;
#81 = CIRCLE ( 'NONE', #14, 12.69999999999999929 ) ;
#82 = ORIENTED_EDGE ( 'NONE', *, *, #107, .F. ) ;
#83 = EDGE_CURVE ( 'NONE', #77, #156, #143, .T. ) ;
#84 = DATE_AND_TIME ( #121, #155 ) ;
#85 = ORIENTED_EDGE ( 'NONE', *, *, #142, .F. ) ;
#86 = APPROVAL_ROLE ( '' ) ;
#87 = APPROVAL_PERSON_ORGANIZATION ( #15, #46, #91 ) ;
#88 = ORIENTED_EDGE ( 'NONE', *, *, #99, .F. ) ;
#89 = PERSON_AND_ORGANIZATION_ROLE ( 'design_owner' ) ;
#90 = PERSON_AND_ORGANIZATION ( #44, #127 ) ;
#91 = APPROVAL_ROLE ( '' ) ;
#92 = AXIS2_PLACEMENT_3D ( 'NONE', #115, #41, #10 ) ;
#93 = LINE ( 'NONE', #23, #160 ) ;
#94 = CC_DESIGN_SECURITY_CLASSIFICATION ( #162, ( #144 ) ) ;
#95 = PERSON_AND_ORGANIZATION ( #44, #127 ) ;
#96 = CLOSED_SHELL ( 'NONE', ( #120, #133, #104, #148 ) ) ;
#97 = DIRECTION ( 'NONE',  ( 0.0000000000000000000, 0.0000000000000000000, 1.000000000000000000 ) ) ;
#98 = DIRECTION ( 'NONE',  ( -1.000000000000000000, -0.0000000000000000000, -0.0000000000000000000 ) ) ;
#99 = EDGE_CURVE ( 'NONE', #156, #172, #34, .T. ) ;
#100 =( GEOMETRIC_REPRESENTATION_CONTEXT ( 3 ) GLOBAL_UNCERTAINTY_ASSIGNED_CONTEXT ( ( #110 ) ) GLOBAL_UNIT_ASSIGNED_CONTEXT ( ( #175, #30, #136 ) ) REPRESENTATION_CONTEXT ( 'NONE', 'WORKASPACE' ) );
#101 = APPROVAL_DATE_TIME ( #128, #118 ) ;
#102 = CARTESIAN_POINT ( 'NONE',  ( -1.500000000000000000, 1.555301434917138433E-15, -12.69999999999999929 ) ) ;
#103 = PERSON_AND_ORGANIZATION_ROLE ( 'classification_officer' ) ;
#104 = ADVANCED_FACE ( 'NONE', ( #28 ), #138, .T. ) ;
#105 = VECTOR ( 'NONE', #39, 1000.000000000000000 ) ;
#106 = APPLICATION_CONTEXT ( 'configuration controlled 3d designs of mechanical parts and assemblies' ) ;
#107 = EDGE_CURVE ( 'NONE', #38, #172, #93, .T. ) ;
#108 = APPLICATION_PROTOCOL_DEFINITION ( 'international standard', 'config_control_design', 1994, #106 ) ;
#109 = CALENDAR_DATE ( 2020, 4, 11 ) ;
#110 = UNCERTAINTY_MEASURE_WITH_UNIT (LENGTH_MEASURE( 1.000000000000000082E-05 ), #175, 'distance_accuracy_value', 'NONE');
#111 = CALENDAR_DATE ( 2020, 4, 11 ) ;
#112 = CARTESIAN_POINT ( 'NONE',  ( 1.500000000000000000, 0.0000000000000000000, 0.0000000000000000000 ) ) ;
#113 = ORIENTED_EDGE ( 'NONE', *, *, #149, .F. ) ;
#114 = CARTESIAN_POINT ( 'NONE',  ( 1.500000000000000000, 0.0000000000000000000, 0.0000000000000000000 ) ) ;
#115 = CARTESIAN_POINT ( 'NONE',  ( -1.500000000000000000, 0.0000000000000000000, 0.0000000000000000000 ) ) ;
#116 = DATE_AND_TIME ( #12, #168 ) ;
#117 = EDGE_LOOP ( 'NONE', ( #88, #85 ) ) ;
#118 = APPROVAL ( #146, 'UNSPECIFIED' ) ;
#119 = PERSON_AND_ORGANIZATION_ROLE ( 'design_supplier' ) ;
#120 = ADVANCED_FACE ( 'NONE', ( #123 ), #171, .T. ) ;
#121 = CALENDAR_DATE ( 2020, 4, 11 ) ;
#122 = AXIS2_PLACEMENT_3D ( 'NONE', #140, #80, #35 ) ;
#123 = FACE_OUTER_BOUND ( 'NONE', #31, .T. ) ;
#124 = EDGE_LOOP ( 'NONE', ( #9, #152 ) ) ;
#125 = AXIS2_PLACEMENT_3D ( 'NONE', #126, #59, #154 ) ;
#126 = CARTESIAN_POINT ( 'NONE',  ( -1.500000000000000000, 0.0000000000000000000, 0.0000000000000000000 ) ) ;
#127 = ORGANIZATION ( 'UNSPECIFIED', 'UNSPECIFIED', '' ) ;
#128 = DATE_AND_TIME ( #24, #4 ) ;
#129 = PRODUCT ( 'Web Model 15403_15785', 'Web Model 15403_15785', '', ( #49 ) ) ;
#130 = AXIS2_PLACEMENT_3D ( 'NONE', #37, #174, #79 ) ;
#131 = PERSON_AND_ORGANIZATION ( #44, #127 ) ;
#132 = DIRECTION ( 'NONE',  ( 0.0000000000000000000, 0.0000000000000000000, 1.000000000000000000 ) ) ;
#133 = ADVANCED_FACE ( 'NONE', ( #65 ), #76, .T. ) ;
#134 = LOCAL_TIME ( 8, 39, 57.00000000000000000, #147 ) ;
#135 = CC_DESIGN_DATE_AND_TIME_ASSIGNMENT ( #116, #52, ( #6 ) ) ;
#136 =( NAMED_UNIT ( * ) SI_UNIT ( $, .STERADIAN. ) SOLID_ANGLE_UNIT ( ) );
#137 = PERSON_AND_ORGANIZATION ( #44, #127 ) ;
#138 = PLANE ( 'NONE',  #158 ) ;
#139 = DESIGN_CONTEXT ( 'detailed design', #106, 'design' ) ;
#140 = CARTESIAN_POINT ( 'NONE',  ( -1.500000000000000000, 0.0000000000000000000, 0.0000000000000000000 ) ) ;
#141 = AXIS2_PLACEMENT_3D ( 'NONE', #114, #98, #97 ) ;
#142 = EDGE_CURVE ( 'NONE', #172, #156, #48, .T. ) ;
#143 = LINE ( 'NONE', #166, #105 ) ;
#144 = PRODUCT_DEFINITION_FORMATION_WITH_SPECIFIED_SOURCE ( 'ANY', '', #129, .NOT_KNOWN. ) ;
#145 = LOCAL_TIME ( 8, 39, 57.00000000000000000, #58 ) ;
#146 = APPROVAL_STATUS ( 'not_yet_approved' ) ;
#147 = COORDINATED_UNIVERSAL_TIME_OFFSET ( 5, 0, .BEHIND. ) ;
#148 = ADVANCED_FACE ( 'NONE', ( #26 ), #25, .F. ) ;
#149 = EDGE_CURVE ( 'NONE', #38, #77, #81, .T. ) ;
#150 = PERSON_AND_ORGANIZATION ( #44, #127 ) ;
#151 = ORIENTED_EDGE ( 'NONE', *, *, #83, .F. ) ;
#152 = ORIENTED_EDGE ( 'NONE', *, *, #149, .T. ) ;
#153 = DIRECTION ( 'NONE',  ( 0.0000000000000000000, 0.0000000000000000000, 1.000000000000000000 ) ) ;
#154 = DIRECTION ( 'NONE',  ( 0.0000000000000000000, 0.0000000000000000000, -1.000000000000000000 ) ) ;
#155 = LOCAL_TIME ( 8, 39, 57.00000000000000000, #53 ) ;
#156 = VERTEX_POINT ( 'NONE', #69 ) ;
#157 = ORIENTED_EDGE ( 'NONE', *, *, #99, .T. ) ;
#158 = AXIS2_PLACEMENT_3D ( 'NONE', #54, #21, #67 ) ;
#159 = APPLICATION_CONTEXT ( 'configuration controlled 3d designs of mechanical parts and assemblies' ) ;
#160 = VECTOR ( 'NONE', #40, 1000.000000000000000 ) ;
#161 = EDGE_LOOP ( 'NONE', ( #82, #11, #3, #157 ) ) ;
#162 = SECURITY_CLASSIFICATION ( '', '', #163 ) ;
#163 = SECURITY_CLASSIFICATION_LEVEL ( 'unclassified' ) ;
#164 = PERSON_AND_ORGANIZATION ( #44, #127 ) ;
#165 = CC_DESIGN_PERSON_AND_ORGANIZATION_ASSIGNMENT ( #137, #89, ( #129 ) ) ;
#166 = CARTESIAN_POINT ( 'NONE',  ( 1.500000000000000000, 0.0000000000000000000, 12.69999999999999929 ) ) ;
#167 = COORDINATED_UNIVERSAL_TIME_OFFSET ( 5, 0, .BEHIND. ) ;
#168 = LOCAL_TIME ( 8, 39, 57.00000000000000000, #42 ) ;
#169 = DIRECTION ( 'NONE',  ( 1.000000000000000000, 0.0000000000000000000, 0.0000000000000000000 ) ) ;
#170 = SHAPE_DEFINITION_REPRESENTATION ( #57, #63 ) ;
#171 = CYLINDRICAL_SURFACE ( 'NONE', #19, 12.69999999999999929 ) ;
#172 = VERTEX_POINT ( 'NONE', #102 ) ;
#173 = CC_DESIGN_PERSON_AND_ORGANIZATION_ASSIGNMENT ( #90, #103, ( #162 ) ) ;
#174 = DIRECTION ( 'NONE',  ( 1.000000000000000000, 0.0000000000000000000, 0.0000000000000000000 ) ) ;
#175 =( LENGTH_UNIT ( ) NAMED_UNIT ( * ) SI_UNIT ( .MILLI., .METRE. ) );
ENDSEC;
END-ISO-10303-21;
