ISO-10303-21;
HEADER;
FILE_DESCRIPTION (( 'STEP AP203' ),
    '1' );
FILE_NAME ('Web Model 43891_12188.step',
    '2019-01-28T19:05:59',
    ( '' ),
    ( '' ),
    'SwSTEP 2.0',
    'SolidWorks 2016',
    '' );
FILE_SCHEMA (( 'CONFIG_CONTROL_DESIGN' ));
ENDSEC;

DATA;
#1 = COORDINATED_UNIVERSAL_TIME_OFFSET ( 5, 0, .BEHIND. ) ;
#2 = CALENDAR_DATE ( 2019, 28, 1 ) ;
#3 = VERTEX_POINT ( 'NONE', #37 ) ;
#4 = CALENDAR_DATE ( 2019, 28, 1 ) ;
#5 = COORDINATED_UNIVERSAL_TIME_OFFSET ( 5, 0, .BEHIND. ) ;
#6 = EDGE_CURVE ( 'NONE', #7, #131, #127, .T. ) ;
#7 = VERTEX_POINT ( 'NONE', #137 ) ;
#8 = CARTESIAN_POINT ( 'NONE',  ( 0.0000000000000000000, 0.0000000000000000000, -0.8750000000000000000 ) ) ;
#9 = VECTOR ( 'NONE', #15, 1000.000000000000000 ) ;
#10 = DATE_TIME_ROLE ( 'classification_date' ) ;
#11 = AXIS2_PLACEMENT_3D ( 'NONE', #73, #145, #128 ) ;
#12 = LOCAL_TIME ( 14, 5, 59.00000000000000000, #1 ) ;
#13 = CC_DESIGN_PERSON_AND_ORGANIZATION_ASSIGNMENT ( #94, #21, ( #143 ) ) ;
#14 = AXIS2_PLACEMENT_3D ( 'NONE', #31, #158, #169 ) ;
#15 = DIRECTION ( 'NONE',  ( -0.0000000000000000000, -0.0000000000000000000, -1.000000000000000000 ) ) ;
#16 = EDGE_LOOP ( 'NONE', ( #115, #135 ) ) ;
#17 = CALENDAR_DATE ( 2019, 28, 1 ) ;
#18 = VECTOR ( 'NONE', #153, 1000.000000000000000 ) ;
#19 = ORIENTED_EDGE ( 'NONE', *, *, #40, .T. ) ;
#20 = CARTESIAN_POINT ( 'NONE',  ( 0.0000000000000000000, 0.0000000000000000000, -0.8750000000000000000 ) ) ;
#21 = PERSON_AND_ORGANIZATION_ROLE ( 'creator' ) ;
#22 = ORIENTED_EDGE ( 'NONE', *, *, #86, .F. ) ;
#23 = PERSON_AND_ORGANIZATION_ROLE ( 'classification_officer' ) ;
#24 = DIRECTION ( 'NONE',  ( 1.000000000000000000, 0.0000000000000000000, -0.0000000000000000000 ) ) ;
#25 = ORIENTED_EDGE ( 'NONE', *, *, #111, .T. ) ;
#26 = LOCAL_TIME ( 14, 5, 59.00000000000000000, #100 ) ;
#27 = APPROVAL_PERSON_ORGANIZATION ( #154, #163, #168 ) ;
#28 = DATE_AND_TIME ( #4, #170 ) ;
#29 = PRODUCT_DEFINITION ( 'UNKNOWN', '', #143, #53 ) ;
#30 = LOCAL_TIME ( 14, 5, 59.00000000000000000, #58 ) ;
#31 = CARTESIAN_POINT ( 'NONE',  ( 0.0000000000000000000, 0.0000000000000000000, 0.8750000000000000000 ) ) ;
#32 = MANIFOLD_SOLID_BREP ( 'Boss-Extrude1', #52 ) ;
#33 = PERSON_AND_ORGANIZATION_ROLE ( 'design_owner' ) ;
#34 = PERSON_AND_ORGANIZATION ( #150, #82 ) ;
#35 = ORIENTED_EDGE ( 'NONE', *, *, #6, .F. ) ;
#36 = CC_DESIGN_APPROVAL ( #55, ( #143 ) ) ;
#37 = CARTESIAN_POINT ( 'NONE',  ( -7.500000000000000000, 0.0000000000000000000, -0.8750000000000000000 ) ) ;
#38 = PERSON_AND_ORGANIZATION ( #150, #82 ) ;
#39 = CARTESIAN_POINT ( 'NONE',  ( -7.500000000000000000, 0.0000000000000000000, 0.8750000000000000000 ) ) ;
#40 = EDGE_CURVE ( 'NONE', #96, #3, #54, .T. ) ;
#41 = ORIENTED_EDGE ( 'NONE', *, *, #79, .F. ) ;
#42 = ORIENTED_EDGE ( 'NONE', *, *, #40, .F. ) ;
#43 = CC_DESIGN_PERSON_AND_ORGANIZATION_ASSIGNMENT ( #34, #33, ( #175 ) ) ;
#44 = CARTESIAN_POINT ( 'NONE',  ( 0.0000000000000000000, 0.0000000000000000000, -0.8750000000000000000 ) ) ;
#45 = DIRECTION ( 'NONE',  ( 0.0000000000000000000, 0.0000000000000000000, 1.000000000000000000 ) ) ;
#46 = DIRECTION ( 'NONE',  ( 0.0000000000000000000, 0.0000000000000000000, 1.000000000000000000 ) ) ;
#47 = APPLICATION_PROTOCOL_DEFINITION ( 'international standard', 'config_control_design', 1994, #126 ) ;
#48 = APPROVAL_STATUS ( 'not_yet_approved' ) ;
#49 = EDGE_LOOP ( 'NONE', ( #35, #41, #19, #99 ) ) ;
#50 = PLANE ( 'NONE',  #98 ) ;
#51 = SECURITY_CLASSIFICATION ( '', '', #88 ) ;
#52 = CLOSED_SHELL ( 'NONE', ( #119, #97, #138, #80 ) ) ;
#53 = DESIGN_CONTEXT ( 'detailed design', #129, 'design' ) ;
#54 = LINE ( 'NONE', #39, #18 ) ;
#55 = APPROVAL ( #48, 'UNSPECIFIED' ) ;
#56 = ORIENTED_EDGE ( 'NONE', *, *, #91, .F. ) ;
#57 = CC_DESIGN_PERSON_AND_ORGANIZATION_ASSIGNMENT ( #69, #23, ( #51 ) ) ;
#58 = COORDINATED_UNIVERSAL_TIME_OFFSET ( 5, 0, .BEHIND. ) ;
#59 =( LENGTH_UNIT ( ) NAMED_UNIT ( * ) SI_UNIT ( .MILLI., .METRE. ) );
#60 = AXIS2_PLACEMENT_3D ( 'NONE', #172, #46, #156 ) ;
#61 = DIRECTION ( 'NONE',  ( 0.0000000000000000000, 0.0000000000000000000, 1.000000000000000000 ) ) ;
#62 = DIRECTION ( 'NONE',  ( 1.000000000000000000, 0.0000000000000000000, 0.0000000000000000000 ) ) ;
#63 = AXIS2_PLACEMENT_3D ( 'NONE', #112, #159, #124 ) ;
#64 = APPROVAL_ROLE ( '' ) ;
#65 = CC_DESIGN_DATE_AND_TIME_ASSIGNMENT ( #28, #85, ( #29 ) ) ;
#66 = CYLINDRICAL_SURFACE ( 'NONE', #106, 7.500000000000000000 ) ;
#67 = PLANE ( 'NONE',  #121 ) ;
#68 = CARTESIAN_POINT ( 'NONE',  ( 7.500000000000000000, 9.184850993605147900E-016, 0.8750000000000000000 ) ) ;
#69 = PERSON_AND_ORGANIZATION ( #150, #82 ) ;
#70 = APPROVAL_DATE_TIME ( #110, #163 ) ;
#71 = CC_DESIGN_PERSON_AND_ORGANIZATION_ASSIGNMENT ( #38, #75, ( #29 ) ) ;
#72 = DIRECTION ( 'NONE',  ( -1.000000000000000000, 0.0000000000000000000, 0.0000000000000000000 ) ) ;
#73 = CARTESIAN_POINT ( 'NONE',  ( 0.0000000000000000000, 0.0000000000000000000, 0.0000000000000000000 ) ) ;
#74 = DIRECTION ( 'NONE',  ( 0.0000000000000000000, 0.0000000000000000000, 1.000000000000000000 ) ) ;
#75 = PERSON_AND_ORGANIZATION_ROLE ( 'creator' ) ;
#76 = CARTESIAN_POINT ( 'NONE',  ( 7.500000000000000000, 9.184850993605147900E-016, -0.8750000000000000000 ) ) ;
#77 = CC_DESIGN_DATE_AND_TIME_ASSIGNMENT ( #90, #10, ( #51 ) ) ;
#78 = CIRCLE ( 'NONE', #63, 7.500000000000000000 ) ;
#79 = EDGE_CURVE ( 'NONE', #96, #7, #108, .T. ) ;
#80 = ADVANCED_FACE ( 'NONE', ( #93 ), #67, .F. ) ;
#81 = LOCAL_TIME ( 14, 5, 59.00000000000000000, #160 ) ;
#82 = ORGANIZATION ( 'UNSPECIFIED', 'UNSPECIFIED', '' ) ;
#83 = APPROVAL ( #148, 'UNSPECIFIED' ) ;
#84 = DIRECTION ( 'NONE',  ( 1.000000000000000000, 0.0000000000000000000, 0.0000000000000000000 ) ) ;
#85 = DATE_TIME_ROLE ( 'creation_date' ) ;
#86 = EDGE_CURVE ( 'NONE', #7, #96, #78, .T. ) ;
#87 = DIRECTION ( 'NONE',  ( -0.0000000000000000000, -0.0000000000000000000, -1.000000000000000000 ) ) ;
#88 = SECURITY_CLASSIFICATION_LEVEL ( 'unclassified' ) ;
#89 = SHAPE_DEFINITION_REPRESENTATION ( #95, #133 ) ;
#90 = DATE_AND_TIME ( #103, #30 ) ;
#91 = EDGE_CURVE ( 'NONE', #3, #131, #122, .T. ) ;
#92 = ORIENTED_EDGE ( 'NONE', *, *, #111, .F. ) ;
#93 = FACE_OUTER_BOUND ( 'NONE', #139, .T. ) ;
#94 = PERSON_AND_ORGANIZATION ( #150, #82 ) ;
#95 = PRODUCT_DEFINITION_SHAPE ( 'NONE', 'NONE',  #29 ) ;
#96 = VERTEX_POINT ( 'NONE', #125 ) ;
#97 = ADVANCED_FACE ( 'NONE', ( #164 ), #66, .T. ) ;
#98 = AXIS2_PLACEMENT_3D ( 'NONE', #141, #116, #24 ) ;
#99 = ORIENTED_EDGE ( 'NONE', *, *, #91, .T. ) ;
#100 = COORDINATED_UNIVERSAL_TIME_OFFSET ( 5, 0, .BEHIND. ) ;
#101 = CC_DESIGN_PERSON_AND_ORGANIZATION_ASSIGNMENT ( #105, #171, ( #143 ) ) ;
#102 = APPROVAL_ROLE ( '' ) ;
#103 = CALENDAR_DATE ( 2019, 28, 1 ) ;
#104 =( NAMED_UNIT ( * ) PLANE_ANGLE_UNIT ( ) SI_UNIT ( $, .RADIAN. ) );
#105 = PERSON_AND_ORGANIZATION ( #150, #82 ) ;
#106 = AXIS2_PLACEMENT_3D ( 'NONE', #161, #87, #72 ) ;
#107 = CC_DESIGN_APPROVAL ( #83, ( #51 ) ) ;
#108 = CIRCLE ( 'NONE', #60, 7.500000000000000000 ) ;
#109 = DATE_AND_TIME ( #17, #81 ) ;
#110 = DATE_AND_TIME ( #2, #12 ) ;
#111 = EDGE_CURVE ( 'NONE', #131, #3, #120, .T. ) ;
#112 = CARTESIAN_POINT ( 'NONE',  ( 0.0000000000000000000, 0.0000000000000000000, 0.8750000000000000000 ) ) ;
#113 = DIRECTION ( 'NONE',  ( 1.000000000000000000, 0.0000000000000000000, -0.0000000000000000000 ) ) ;
#114 = UNCERTAINTY_MEASURE_WITH_UNIT (LENGTH_MEASURE( 1.000000000000000100E-005 ), #59, 'distance_accuracy_value', 'NONE');
#115 = ORIENTED_EDGE ( 'NONE', *, *, #79, .T. ) ;
#116 = DIRECTION ( 'NONE',  ( 0.0000000000000000000, 0.0000000000000000000, 1.000000000000000000 ) ) ;
#117 = CC_DESIGN_SECURITY_CLASSIFICATION ( #51, ( #143 ) ) ;
#118 = PERSON_AND_ORGANIZATION ( #150, #82 ) ;
#119 = ADVANCED_FACE ( 'NONE', ( #151 ), #147, .T. ) ;
#120 = CIRCLE ( 'NONE', #140, 7.500000000000000000 ) ;
#121 = AXIS2_PLACEMENT_3D ( 'NONE', #44, #74, #113 ) ;
#122 = CIRCLE ( 'NONE', #152, 7.500000000000000000 ) ;
#123 = PRODUCT_RELATED_PRODUCT_CATEGORY ( 'detail', '', ( #175 ) ) ;
#124 = DIRECTION ( 'NONE',  ( 1.000000000000000000, 0.0000000000000000000, 0.0000000000000000000 ) ) ;
#125 = CARTESIAN_POINT ( 'NONE',  ( -7.500000000000000000, 0.0000000000000000000, 0.8750000000000000000 ) ) ;
#126 = APPLICATION_CONTEXT ( 'configuration controlled 3d designs of mechanical parts and assemblies' ) ;
#127 = LINE ( 'NONE', #68, #9 ) ;
#128 = DIRECTION ( 'NONE',  ( 1.000000000000000000, 0.0000000000000000000, 0.0000000000000000000 ) ) ;
#129 = APPLICATION_CONTEXT ( 'configuration controlled 3d designs of mechanical parts and assemblies' ) ;
#130 = DATE_AND_TIME ( #166, #26 ) ;
#131 = VERTEX_POINT ( 'NONE', #76 ) ;
#132 = CC_DESIGN_APPROVAL ( #163, ( #29 ) ) ;
#133 = ADVANCED_BREP_SHAPE_REPRESENTATION ( 'Web Model 43891_12188', ( #32, #11 ), #173 ) ;
#134 = APPROVAL_PERSON_ORGANIZATION ( #174, #55, #102 ) ;
#135 = ORIENTED_EDGE ( 'NONE', *, *, #86, .T. ) ;
#136 = APPROVAL_DATE_TIME ( #130, #55 ) ;
#137 = CARTESIAN_POINT ( 'NONE',  ( 7.500000000000000000, 9.184850993605147900E-016, 0.8750000000000000000 ) ) ;
#138 = ADVANCED_FACE ( 'NONE', ( #149 ), #50, .T. ) ;
#139 = EDGE_LOOP ( 'NONE', ( #56, #92 ) ) ;
#140 = AXIS2_PLACEMENT_3D ( 'NONE', #20, #45, #84 ) ;
#141 = CARTESIAN_POINT ( 'NONE',  ( 0.0000000000000000000, 0.0000000000000000000, 0.8750000000000000000 ) ) ;
#142 = ORIENTED_EDGE ( 'NONE', *, *, #6, .T. ) ;
#143 = PRODUCT_DEFINITION_FORMATION_WITH_SPECIFIED_SOURCE ( 'ANY', '', #175, .NOT_KNOWN. ) ;
#144 = APPROVAL_STATUS ( 'not_yet_approved' ) ;
#145 = DIRECTION ( 'NONE',  ( 0.0000000000000000000, 0.0000000000000000000, 1.000000000000000000 ) ) ;
#146 = APPLICATION_PROTOCOL_DEFINITION ( 'international standard', 'config_control_design', 1994, #129 ) ;
#147 = CYLINDRICAL_SURFACE ( 'NONE', #14, 7.500000000000000000 ) ;
#148 = APPROVAL_STATUS ( 'not_yet_approved' ) ;
#149 = FACE_OUTER_BOUND ( 'NONE', #16, .T. ) ;
#150 = PERSON ( 'UNSPECIFIED', 'UNSPECIFIED', 'UNSPECIFIED', ('UNSPECIFIED'), ('UNSPECIFIED'), ('UNSPECIFIED') ) ;
#151 = FACE_OUTER_BOUND ( 'NONE', #165, .T. ) ;
#152 = AXIS2_PLACEMENT_3D ( 'NONE', #8, #61, #62 ) ;
#153 = DIRECTION ( 'NONE',  ( -0.0000000000000000000, -0.0000000000000000000, -1.000000000000000000 ) ) ;
#154 = PERSON_AND_ORGANIZATION ( #150, #82 ) ;
#155 = APPROVAL_PERSON_ORGANIZATION ( #118, #83, #64 ) ;
#156 = DIRECTION ( 'NONE',  ( 1.000000000000000000, 0.0000000000000000000, 0.0000000000000000000 ) ) ;
#157 =( NAMED_UNIT ( * ) SI_UNIT ( $, .STERADIAN. ) SOLID_ANGLE_UNIT ( ) );
#158 = DIRECTION ( 'NONE',  ( -0.0000000000000000000, -0.0000000000000000000, -1.000000000000000000 ) ) ;
#159 = DIRECTION ( 'NONE',  ( 0.0000000000000000000, 0.0000000000000000000, 1.000000000000000000 ) ) ;
#160 = COORDINATED_UNIVERSAL_TIME_OFFSET ( 5, 0, .BEHIND. ) ;
#161 = CARTESIAN_POINT ( 'NONE',  ( 0.0000000000000000000, 0.0000000000000000000, 0.8750000000000000000 ) ) ;
#162 = APPROVAL_DATE_TIME ( #109, #83 ) ;
#163 = APPROVAL ( #144, 'UNSPECIFIED' ) ;
#164 = FACE_OUTER_BOUND ( 'NONE', #49, .T. ) ;
#165 = EDGE_LOOP ( 'NONE', ( #22, #142, #25, #42 ) ) ;
#166 = CALENDAR_DATE ( 2019, 28, 1 ) ;
#167 = MECHANICAL_CONTEXT ( 'NONE', #126, 'mechanical' ) ;
#168 = APPROVAL_ROLE ( '' ) ;
#169 = DIRECTION ( 'NONE',  ( -1.000000000000000000, 0.0000000000000000000, 0.0000000000000000000 ) ) ;
#170 = LOCAL_TIME ( 14, 5, 59.00000000000000000, #5 ) ;
#171 = PERSON_AND_ORGANIZATION_ROLE ( 'design_supplier' ) ;
#172 = CARTESIAN_POINT ( 'NONE',  ( 0.0000000000000000000, 0.0000000000000000000, 0.8750000000000000000 ) ) ;
#173 =( GEOMETRIC_REPRESENTATION_CONTEXT ( 3 ) GLOBAL_UNCERTAINTY_ASSIGNED_CONTEXT ( ( #114 ) ) GLOBAL_UNIT_ASSIGNED_CONTEXT ( ( #59, #104, #157 ) ) REPRESENTATION_CONTEXT ( 'NONE', 'WORKASPACE' ) );
#174 = PERSON_AND_ORGANIZATION ( #150, #82 ) ;
#175 = PRODUCT ( 'Web Model 43891_12188', 'Web Model 43891_12188', '', ( #167 ) ) ;
ENDSEC;
END-ISO-10303-21;
