ISO-10303-21;
HEADER;
FILE_DESCRIPTION (( 'STEP AP203' ),
    '1' );
FILE_NAME ('step_32703.step',
    '2014-06-05T19:28:34',
    ( '' ),
    ( '' ),
    'SwSTEP 2.0',
    'SolidWorks 2014',
    '' );
FILE_SCHEMA (( 'CONFIG_CONTROL_DESIGN' ));
ENDSEC;

DATA;
#1 = DIRECTION ( 'NONE',  ( 1.000000000000000000, 8.164311994315686400E-017, -0.0000000000000000000 ) ) ;
#2 = COORDINATED_UNIVERSAL_TIME_OFFSET ( 7, 0, .BEHIND. ) ;
#3 = PLANE ( 'NONE',  #235 ) ;
#4 = CARTESIAN_POINT ( 'NONE',  ( 0.0000000000000000000, 0.0000000000000000000, 45.00000000000000000 ) ) ;
#5 = LINE ( 'NONE', #317, #133 ) ;
#6 = EDGE_CURVE ( 'NONE', #184, #191, #116, .T. ) ;
#7 = DIRECTION ( 'NONE',  ( 0.0000000000000000000, 0.0000000000000000000, 1.000000000000000000 ) ) ;
#8 = DIRECTION ( 'NONE',  ( -0.0000000000000000000, -1.000000000000000000, -0.0000000000000000000 ) ) ;
#9 = DIRECTION ( 'NONE',  ( 1.000000000000000000, 0.0000000000000000000, -0.0000000000000000000 ) ) ;
#10 = ADVANCED_FACE ( 'NONE', ( #57 ), #100, .F. ) ;
#11 = CARTESIAN_POINT ( 'NONE',  ( 45.00000000000000000, 45.00000000000000000, 45.00000000000000000 ) ) ;
#12 = PLANE ( 'NONE',  #187 ) ;
#13 = LOCAL_TIME ( 12, 28, 34.00000000000000000, #101 ) ;
#14 = VECTOR ( 'NONE', #236, 1000.000000000000000 ) ;
#15 = CC_DESIGN_PERSON_AND_ORGANIZATION_ASSIGNMENT ( #161, #294, ( #34 ) ) ;
#16 = DIRECTION ( 'NONE',  ( 0.0000000000000000000, -1.000000000000000000, 0.0000000000000000000 ) ) ;
#17 = ORIENTED_EDGE ( 'NONE', *, *, #189, .F. ) ;
#18 = DIRECTION ( 'NONE',  ( 0.0000000000000000000, -0.0000000000000000000, -1.000000000000000000 ) ) ;
#19 = ORIENTED_EDGE ( 'NONE', *, *, #281, .F. ) ;
#20 = DIRECTION ( 'NONE',  ( 1.000000000000000000, 8.164311994315686400E-017, -0.0000000000000000000 ) ) ;
#21 = VECTOR ( 'NONE', #181, 1000.000000000000100 ) ;
#22 = CARTESIAN_POINT ( 'NONE',  ( 45.00000000000000700, 3.673940397442059200E-015, 45.00000000000000000 ) ) ;
#23 = CARTESIAN_POINT ( 'NONE',  ( 45.00000000000000700, 3.673940397442059200E-015, 45.00000000000000000 ) ) ;
#24 = APPROVAL_DATE_TIME ( #114, #64 ) ;
#25 = DIRECTION ( 'NONE',  ( -0.0000000000000000000, -0.0000000000000000000, -1.000000000000000000 ) ) ;
#26 = ADVANCED_BREP_SHAPE_REPRESENTATION ( 'step_32703', ( #279, #239, #128 ), #153 ) ;
#27 = PLANE ( 'NONE',  #151 ) ;
#28 = ORIENTED_EDGE ( 'NONE', *, *, #208, .T. ) ;
#29 = DIRECTION ( 'NONE',  ( -0.0000000000000000000, -0.0000000000000000000, -1.000000000000000000 ) ) ;
#30 = APPROVAL ( #130, 'UNSPECIFIED' ) ;
#31 = VERTEX_POINT ( 'NONE', #69 ) ;
#32 = APPROVAL_PERSON_ORGANIZATION ( #119, #64, #283 ) ;
#33 = CARTESIAN_POINT ( 'NONE',  ( 45.00000000000000000, 45.00000000000000000, 0.0000000000000000000 ) ) ;
#34 = SECURITY_CLASSIFICATION ( '', '', #292 ) ;
#35 = DIRECTION ( 'NONE',  ( 0.7071067811865474600, 0.7071067811865474600, -0.0000000000000000000 ) ) ;
#36 = LOCAL_TIME ( 12, 28, 34.00000000000000000, #305 ) ;
#37 = DIRECTION ( 'NONE',  ( -1.541976423090495600E-016, 1.000000000000000000, -0.0000000000000000000 ) ) ;
#38 = CC_DESIGN_PERSON_AND_ORGANIZATION_ASSIGNMENT ( #219, #289, ( #74 ) ) ;
#39 = EDGE_LOOP ( 'NONE', ( #109, #45, #288, #206 ) ) ;
#40 = ADVANCED_FACE ( 'NONE', ( #89 ), #252, .F. ) ;
#41 = CARTESIAN_POINT ( 'NONE',  ( 45.00000000000000000, 45.00000000000000000, 0.0000000000000000000 ) ) ;
#42 = VECTOR ( 'NONE', #217, 1000.000000000000100 ) ;
#43 = COORDINATED_UNIVERSAL_TIME_OFFSET ( 7, 0, .BEHIND. ) ;
#44 = CC_DESIGN_PERSON_AND_ORGANIZATION_ASSIGNMENT ( #273, #286, ( #74 ) ) ;
#45 = ORIENTED_EDGE ( 'NONE', *, *, #215, .F. ) ;
#46 = CC_DESIGN_SECURITY_CLASSIFICATION ( #34, ( #74 ) ) ;
#47 = CARTESIAN_POINT ( 'NONE',  ( 0.0000000000000000000, 0.0000000000000000000, 45.00000000000000000 ) ) ;
#48 =( NAMED_UNIT ( * ) SI_UNIT ( $, .STERADIAN. ) SOLID_ANGLE_UNIT ( ) );
#49 = ORIENTED_EDGE ( 'NONE', *, *, #71, .F. ) ;
#50 = LINE ( 'NONE', #304, #301 ) ;
#51 = ORIENTED_EDGE ( 'NONE', *, *, #120, .T. ) ;
#52 = PRODUCT ( 'step_32703', 'step_32703', '', ( #132 ) ) ;
#53 = CC_DESIGN_APPROVAL ( #64, ( #74 ) ) ;
#54 = LINE ( 'NONE', #115, #42 ) ;
#55 = PERSON ( 'UNSPECIFIED', 'UNSPECIFIED', 'UNSPECIFIED', ('UNSPECIFIED'), ('UNSPECIFIED'), ('UNSPECIFIED') ) ;
#56 = EDGE_LOOP ( 'NONE', ( #165, #28, #224 ) ) ;
#57 = FACE_OUTER_BOUND ( 'NONE', #299, .T. ) ;
#58 = LINE ( 'NONE', #41, #108 ) ;
#59 = LINE ( 'NONE', #145, #14 ) ;
#60 = DIRECTION ( 'NONE',  ( 1.000000000000000000, 0.0000000000000000000, 0.0000000000000000000 ) ) ;
#61 = DIRECTION ( 'NONE',  ( 0.0000000000000000000, 0.0000000000000000000, -1.000000000000000000 ) ) ;
#62 = LINE ( 'NONE', #126, #205 ) ;
#63 = FACE_OUTER_BOUND ( 'NONE', #56, .T. ) ;
#64 = APPROVAL ( #282, 'UNSPECIFIED' ) ;
#65 = DIRECTION ( 'NONE',  ( -0.0000000000000000000, -0.0000000000000000000, -1.000000000000000000 ) ) ;
#66 = CARTESIAN_POINT ( 'NONE',  ( 0.0000000000000000000, 0.0000000000000000000, 45.00000000000000000 ) ) ;
#67 = CARTESIAN_POINT ( 'NONE',  ( 0.0000000000000000000, 0.0000000000000000000, 0.0000000000000000000 ) ) ;
#68 = PLANE ( 'NONE',  #272 ) ;
#69 = CARTESIAN_POINT ( 'NONE',  ( 0.0000000000000000000, 0.0000000000000000000, 0.0000000000000000000 ) ) ;
#70 = CARTESIAN_POINT ( 'NONE',  ( 45.00000000000000700, 3.673940397442059200E-015, 45.00000000000000000 ) ) ;
#71 = EDGE_CURVE ( 'NONE', #96, #179, #142, .T. ) ;
#72 = EDGE_CURVE ( 'NONE', #179, #31, #110, .T. ) ;
#73 = ORIENTED_EDGE ( 'NONE', *, *, #220, .F. ) ;
#74 = PRODUCT_DEFINITION_FORMATION_WITH_SPECIFIED_SOURCE ( 'ANY', '', #52, .NOT_KNOWN. ) ;
#75 = CARTESIAN_POINT ( 'NONE',  ( 0.0000000000000000000, 45.00000000000000000, 0.0000000000000000000 ) ) ;
#76 = VERTEX_POINT ( 'NONE', #166 ) ;
#77 = CARTESIAN_POINT ( 'NONE',  ( 45.00000000000000000, 45.00000000000000000, 45.00000000000000000 ) ) ;
#78 = CC_DESIGN_DATE_AND_TIME_ASSIGNMENT ( #177, #280, ( #113 ) ) ;
#79 = APPROVAL_DATE_TIME ( #232, #106 ) ;
#80 = CC_DESIGN_PERSON_AND_ORGANIZATION_ASSIGNMENT ( #123, #278, ( #113 ) ) ;
#81 = CARTESIAN_POINT ( 'NONE',  ( 0.0000000000000000000, 45.00000000000000000, 0.0000000000000000000 ) ) ;
#82 = ORIENTED_EDGE ( 'NONE', *, *, #6, .T. ) ;
#83 = APPROVAL_DATE_TIME ( #144, #30 ) ;
#84 = DIRECTION ( 'NONE',  ( 0.7071067811865474600, 0.7071067811865474600, -0.0000000000000000000 ) ) ;
#85 = DIRECTION ( 'NONE',  ( -1.000000000000000000, -0.0000000000000000000, -0.0000000000000000000 ) ) ;
#86 = VECTOR ( 'NONE', #261, 1000.000000000000000 ) ;
#87 = CC_DESIGN_APPROVAL ( #106, ( #113 ) ) ;
#88 = FACE_OUTER_BOUND ( 'NONE', #316, .T. ) ;
#89 = FACE_OUTER_BOUND ( 'NONE', #258, .T. ) ;
#90 = VERTEX_POINT ( 'NONE', #216 ) ;
#91 = EDGE_CURVE ( 'NONE', #184, #159, #242, .T. ) ;
#92 = PRODUCT_DEFINITION_SHAPE ( 'NONE', 'NONE',  #113 ) ;
#93 = DIRECTION ( 'NONE',  ( 0.0000000000000000000, 0.0000000000000000000, -1.000000000000000000 ) ) ;
#94 = APPROVAL_PERSON_ORGANIZATION ( #152, #30, #134 ) ;
#95 = CARTESIAN_POINT ( 'NONE',  ( 45.00000000000000000, 45.00000000000000000, 45.00000000000000000 ) ) ;
#96 = VERTEX_POINT ( 'NONE', #259 ) ;
#97 = PLANE ( 'NONE',  #190 ) ;
#98 = PLANE ( 'NONE',  #308 ) ;
#99 = VECTOR ( 'NONE', #29, 1000.000000000000000 ) ;
#100 = PLANE ( 'NONE',  #158 ) ;
#101 = COORDINATED_UNIVERSAL_TIME_OFFSET ( 7, 0, .BEHIND. ) ;
#102 = DIRECTION ( 'NONE',  ( -0.7071067811865475700, 0.7071067811865475700, 0.0000000000000000000 ) ) ;
#103 = UNCERTAINTY_MEASURE_WITH_UNIT (LENGTH_MEASURE( 1.000000000000000100E-005 ), #253, 'distance_accuracy_value', 'NONE');
#104 = DIRECTION ( 'NONE',  ( 0.7071067811865475700, -0.7071067811865475700, 0.0000000000000000000 ) ) ;
#105 = APPROVAL_STATUS ( 'not_yet_approved' ) ;
#106 = APPROVAL ( #105, 'UNSPECIFIED' ) ;
#107 = ORIENTED_EDGE ( 'NONE', *, *, #265, .T. ) ;
#108 = VECTOR ( 'NONE', #35, 1000.000000000000100 ) ;
#109 = ORIENTED_EDGE ( 'NONE', *, *, #71, .T. ) ;
#110 = LINE ( 'NONE', #67, #202 ) ;
#111 = ADVANCED_FACE ( 'NONE', ( #140 ), #3, .T. ) ;
#112 = VECTOR ( 'NONE', #211, 1000.000000000000000 ) ;
#113 = PRODUCT_DEFINITION ( 'UNKNOWN', '', #74, #192 ) ;
#114 = DATE_AND_TIME ( #168, #223 ) ;
#115 = CARTESIAN_POINT ( 'NONE',  ( 0.0000000000000000000, 0.0000000000000000000, 0.0000000000000000000 ) ) ;
#116 = LINE ( 'NONE', #95, #266 ) ;
#117 = LINE ( 'NONE', #160, #112 ) ;
#118 = EDGE_LOOP ( 'NONE', ( #122, #241, #49 ) ) ;
#119 = PERSON_AND_ORGANIZATION ( #55, #319 ) ;
#120 = EDGE_CURVE ( 'NONE', #191, #150, #54, .T. ) ;
#121 = CC_DESIGN_PERSON_AND_ORGANIZATION_ASSIGNMENT ( #315, #320, ( #52 ) ) ;
#122 = ORIENTED_EDGE ( 'NONE', *, *, #302, .F. ) ;
#123 = PERSON_AND_ORGANIZATION ( #55, #319 ) ;
#124 = CARTESIAN_POINT ( 'NONE',  ( 0.0000000000000000000, 0.0000000000000000000, 0.0000000000000000000 ) ) ;
#125 = ORIENTED_EDGE ( 'NONE', *, *, #265, .F. ) ;
#126 = CARTESIAN_POINT ( 'NONE',  ( 45.00000000000000700, 3.673940397442059200E-015, 0.0000000000000000000 ) ) ;
#127 = ORIENTED_EDGE ( 'NONE', *, *, #281, .T. ) ;
#128 = AXIS2_PLACEMENT_3D ( 'NONE', #247, #155, #228 ) ;
#129 = ADVANCED_FACE ( 'NONE', ( #88 ), #98, .F. ) ;
#130 = APPROVAL_STATUS ( 'not_yet_approved' ) ;
#131 = CARTESIAN_POINT ( 'NONE',  ( 0.0000000000000000000, 0.0000000000000000000, 45.00000000000000000 ) ) ;
#132 = MECHANICAL_CONTEXT ( 'NONE', #176, 'mechanical' ) ;
#133 = VECTOR ( 'NONE', #85, 1000.000000000000000 ) ;
#134 = APPROVAL_ROLE ( '' ) ;
#135 = FACE_OUTER_BOUND ( 'NONE', #188, .T. ) ;
#136 = VECTOR ( 'NONE', #254, 1000.000000000000000 ) ;
#137 = VECTOR ( 'NONE', #37, 1000.000000000000000 ) ;
#138 = LINE ( 'NONE', #264, #171 ) ;
#139 = SHAPE_DEFINITION_REPRESENTATION ( #92, #26 ) ;
#140 = FACE_OUTER_BOUND ( 'NONE', #313, .T. ) ;
#141 = CARTESIAN_POINT ( 'NONE',  ( 45.00000000000000000, 45.00000000000000000, 45.00000000000000000 ) ) ;
#142 = LINE ( 'NONE', #75, #86 ) ;
#143 = CARTESIAN_POINT ( 'NONE',  ( 0.0000000000000000000, 0.0000000000000000000, 45.00000000000000000 ) ) ;
#144 = DATE_AND_TIME ( #201, #263 ) ;
#145 = CARTESIAN_POINT ( 'NONE',  ( 0.0000000000000000000, 0.0000000000000000000, 45.00000000000000000 ) ) ;
#146 = ORIENTED_EDGE ( 'NONE', *, *, #198, .T. ) ;
#147 = ADVANCED_FACE ( 'NONE', ( #63 ), #68, .F. ) ;
#148 = CARTESIAN_POINT ( 'NONE',  ( 0.0000000000000000000, 0.0000000000000000000, 0.0000000000000000000 ) ) ;
#149 = EDGE_LOOP ( 'NONE', ( #73, #287, #312 ) ) ;
#150 = VERTEX_POINT ( 'NONE', #148 ) ;
#151 = AXIS2_PLACEMENT_3D ( 'NONE', #47, #60, #61 ) ;
#152 = PERSON_AND_ORGANIZATION ( #55, #319 ) ;
#153 =( GEOMETRIC_REPRESENTATION_CONTEXT ( 3 ) GLOBAL_UNCERTAINTY_ASSIGNED_CONTEXT ( ( #103 ) ) GLOBAL_UNIT_ASSIGNED_CONTEXT ( ( #253, #297, #48 ) ) REPRESENTATION_CONTEXT ( 'NONE', 'WORKASPACE' ) );
#154 = LINE ( 'NONE', #77, #136 ) ;
#155 = DIRECTION ( 'NONE',  ( 0.0000000000000000000, 0.0000000000000000000, 1.000000000000000000 ) ) ;
#156 = ORIENTED_EDGE ( 'NONE', *, *, #186, .F. ) ;
#157 = VERTEX_POINT ( 'NONE', #141 ) ;
#158 = AXIS2_PLACEMENT_3D ( 'NONE', #269, #170, #163 ) ;
#159 = VERTEX_POINT ( 'NONE', #131 ) ;
#160 = CARTESIAN_POINT ( 'NONE',  ( 45.00000000000000000, 45.00000000000000000, 45.00000000000000000 ) ) ;
#161 = PERSON_AND_ORGANIZATION ( #55, #319 ) ;
#162 = PLANE ( 'NONE',  #229 ) ;
#163 = DIRECTION ( 'NONE',  ( 1.541976423090495600E-016, -1.000000000000000000, 0.0000000000000000000 ) ) ;
#164 = VECTOR ( 'NONE', #20, 1000.000000000000000 ) ;
#165 = ORIENTED_EDGE ( 'NONE', *, *, #210, .T. ) ;
#166 = CARTESIAN_POINT ( 'NONE',  ( 45.00000000000000700, 3.673940397442059200E-015, 0.0000000000000000000 ) ) ;
#167 = EDGE_LOOP ( 'NONE', ( #295, #17, #268, #196 ) ) ;
#168 = CALENDAR_DATE ( 2014, 5, 6 ) ;
#169 = ORIENTED_EDGE ( 'NONE', *, *, #6, .F. ) ;
#170 = DIRECTION ( 'NONE',  ( -1.000000000000000000, -1.541976423090495600E-016, 0.0000000000000000000 ) ) ;
#171 = VECTOR ( 'NONE', #84, 1000.000000000000100 ) ;
#172 = ORIENTED_EDGE ( 'NONE', *, *, #215, .T. ) ;
#173 = VERTEX_POINT ( 'NONE', #143 ) ;
#174 = DIRECTION ( 'NONE',  ( -0.0000000000000000000, -0.0000000000000000000, -1.000000000000000000 ) ) ;
#175 = ADVANCED_FACE ( 'NONE', ( #311 ), #162, .T. ) ;
#176 = APPLICATION_CONTEXT ( 'configuration controlled 3d designs of mechanical parts and assemblies' ) ;
#177 = DATE_AND_TIME ( #234, #285 ) ;
#178 = CC_DESIGN_DATE_AND_TIME_ASSIGNMENT ( #213, #240, ( #34 ) ) ;
#179 = VERTEX_POINT ( 'NONE', #81 ) ;
#180 = FACE_OUTER_BOUND ( 'NONE', #39, .T. ) ;
#181 = DIRECTION ( 'NONE',  ( -0.7071067811865474600, -0.7071067811865474600, -0.0000000000000000000 ) ) ;
#182 = ORIENTED_EDGE ( 'NONE', *, *, #198, .F. ) ;
#183 = FACE_OUTER_BOUND ( 'NONE', #167, .T. ) ;
#184 = VERTEX_POINT ( 'NONE', #200 ) ;
#185 = CLOSED_SHELL ( 'NONE', ( #129, #10, #40, #111, #243 ) ) ;
#186 = EDGE_CURVE ( 'NONE', #159, #150, #291, .T. ) ;
#187 = AXIS2_PLACEMENT_3D ( 'NONE', #227, #16, #18 ) ;
#188 = EDGE_LOOP ( 'NONE', ( #310, #197, #221, #172 ) ) ;
#189 = EDGE_CURVE ( 'NONE', #157, #96, #117, .T. ) ;
#190 = AXIS2_PLACEMENT_3D ( 'NONE', #250, #7, #9 ) ;
#191 = VERTEX_POINT ( 'NONE', #296 ) ;
#192 = DESIGN_CONTEXT ( 'detailed design', #275, 'design' ) ;
#193 = VERTEX_POINT ( 'NONE', #237 ) ;
#194 = EDGE_CURVE ( 'NONE', #173, #31, #59, .T. ) ;
#195 = DIRECTION ( 'NONE',  ( -1.000000000000000000, 0.0000000000000000000, 0.0000000000000000000 ) ) ;
#196 = ORIENTED_EDGE ( 'NONE', *, *, #194, .T. ) ;
#197 = ORIENTED_EDGE ( 'NONE', *, *, #194, .F. ) ;
#198 = EDGE_CURVE ( 'NONE', #193, #184, #154, .T. ) ;
#199 = EDGE_CURVE ( 'NONE', #90, #173, #50, .T. ) ;
#200 = CARTESIAN_POINT ( 'NONE',  ( 45.00000000000000000, 45.00000000000000000, 45.00000000000000000 ) ) ;
#201 = CALENDAR_DATE ( 2014, 5, 6 ) ;
#202 = VECTOR ( 'NONE', #8, 1000.000000000000000 ) ;
#203 = CALENDAR_DATE ( 2014, 5, 6 ) ;
#204 = ORIENTED_EDGE ( 'NONE', *, *, #186, .T. ) ;
#205 = VECTOR ( 'NONE', #1, 1000.000000000000000 ) ;
#206 = ORIENTED_EDGE ( 'NONE', *, *, #189, .T. ) ;
#207 = CARTESIAN_POINT ( 'NONE',  ( 0.0000000000000000000, 45.00000000000000000, 45.00000000000000000 ) ) ;
#208 = EDGE_CURVE ( 'NONE', #157, #90, #5, .T. ) ;
#209 = LINE ( 'NONE', #23, #222 ) ;
#210 = EDGE_CURVE ( 'NONE', #173, #157, #138, .T. ) ;
#211 = DIRECTION ( 'NONE',  ( -0.0000000000000000000, -0.0000000000000000000, -1.000000000000000000 ) ) ;
#212 = ORIENTED_EDGE ( 'NONE', *, *, #91, .T. ) ;
#213 = DATE_AND_TIME ( #270, #13 ) ;
#214 = AXIS2_PLACEMENT_3D ( 'NONE', #11, #102, #257 ) ;
#215 = EDGE_CURVE ( 'NONE', #90, #179, #274, .T. ) ;
#216 = CARTESIAN_POINT ( 'NONE',  ( 0.0000000000000000000, 45.00000000000000000, 45.00000000000000000 ) ) ;
#217 = DIRECTION ( 'NONE',  ( -0.7071067811865474600, -0.7071067811865474600, -0.0000000000000000000 ) ) ;
#218 = ADVANCED_FACE ( 'NONE', ( #183 ), #321, .F. ) ;
#219 = PERSON_AND_ORGANIZATION ( #55, #319 ) ;
#220 = EDGE_CURVE ( 'NONE', #150, #76, #62, .T. ) ;
#221 = ORIENTED_EDGE ( 'NONE', *, *, #199, .F. ) ;
#222 = VECTOR ( 'NONE', #25, 1000.000000000000000 ) ;
#223 = LOCAL_TIME ( 12, 28, 34.00000000000000000, #277 ) ;
#224 = ORIENTED_EDGE ( 'NONE', *, *, #199, .T. ) ;
#225 = DIRECTION ( 'NONE',  ( 1.000000000000000000, 0.0000000000000000000, -0.0000000000000000000 ) ) ;
#226 = DIRECTION ( 'NONE',  ( 0.0000000000000000000, 0.0000000000000000000, -1.000000000000000000 ) ) ;
#227 = CARTESIAN_POINT ( 'NONE',  ( 0.0000000000000000000, 45.00000000000000000, 45.00000000000000000 ) ) ;
#228 = DIRECTION ( 'NONE',  ( 1.000000000000000000, 0.0000000000000000000, 0.0000000000000000000 ) ) ;
#229 = AXIS2_PLACEMENT_3D ( 'NONE', #124, #226, #246 ) ;
#230 = VECTOR ( 'NONE', #174, 1000.000000000000000 ) ;
#231 = APPROVAL_PERSON_ORGANIZATION ( #256, #106, #276 ) ;
#232 = DATE_AND_TIME ( #203, #36 ) ;
#233 = DIRECTION ( 'NONE',  ( 0.7071067811865474600, 0.7071067811865474600, 0.0000000000000000000 ) ) ;
#234 = CALENDAR_DATE ( 2014, 5, 6 ) ;
#235 = AXIS2_PLACEMENT_3D ( 'NONE', #245, #307, #225 ) ;
#236 = DIRECTION ( 'NONE',  ( -0.0000000000000000000, -0.0000000000000000000, -1.000000000000000000 ) ) ;
#237 = CARTESIAN_POINT ( 'NONE',  ( 45.00000000000000700, 3.673940397442059200E-015, 45.00000000000000000 ) ) ;
#238 = CARTESIAN_POINT ( 'NONE',  ( 0.0000000000000000000, 0.0000000000000000000, 45.00000000000000000 ) ) ;
#239 = MANIFOLD_SOLID_BREP ( 'Boss-Extrude2', #185 ) ;
#240 = DATE_TIME_ROLE ( 'classification_date' ) ;
#241 = ORIENTED_EDGE ( 'NONE', *, *, #72, .F. ) ;
#242 = LINE ( 'NONE', #66, #21 ) ;
#243 = ADVANCED_FACE ( 'NONE', ( #249 ), #97, .F. ) ;
#244 = CARTESIAN_POINT ( 'NONE',  ( 0.0000000000000000000, 0.0000000000000000000, 45.00000000000000000 ) ) ;
#245 = CARTESIAN_POINT ( 'NONE',  ( 0.0000000000000000000, 0.0000000000000000000, 45.00000000000000000 ) ) ;
#246 = DIRECTION ( 'NONE',  ( -1.000000000000000000, 0.0000000000000000000, 0.0000000000000000000 ) ) ;
#247 = CARTESIAN_POINT ( 'NONE',  ( 0.0000000000000000000, 0.0000000000000000000, 0.0000000000000000000 ) ) ;
#248 = AXIS2_PLACEMENT_3D ( 'NONE', #4, #104, #233 ) ;
#249 = FACE_OUTER_BOUND ( 'NONE', #149, .T. ) ;
#250 = CARTESIAN_POINT ( 'NONE',  ( 0.0000000000000000000, 0.0000000000000000000, 0.0000000000000000000 ) ) ;
#251 = DIRECTION ( 'NONE',  ( -1.000000000000000000, -8.164311994315687600E-017, 0.0000000000000000000 ) ) ;
#252 = PLANE ( 'NONE',  #248 ) ;
#253 =( LENGTH_UNIT ( ) NAMED_UNIT ( * ) SI_UNIT ( .MILLI., .METRE. ) );
#254 = DIRECTION ( 'NONE',  ( -1.541976423090495600E-016, 1.000000000000000000, -0.0000000000000000000 ) ) ;
#255 = CC_DESIGN_APPROVAL ( #30, ( #34 ) ) ;
#256 = PERSON_AND_ORGANIZATION ( #55, #319 ) ;
#257 = DIRECTION ( 'NONE',  ( -0.7071067811865474600, -0.7071067811865474600, 0.0000000000000000000 ) ) ;
#258 = EDGE_LOOP ( 'NONE', ( #51, #156, #306, #82 ) ) ;
#259 = CARTESIAN_POINT ( 'NONE',  ( 45.00000000000000000, 45.00000000000000000, 0.0000000000000000000 ) ) ;
#260 = ADVANCED_FACE ( 'NONE', ( #180 ), #12, .F. ) ;
#261 = DIRECTION ( 'NONE',  ( -1.000000000000000000, -0.0000000000000000000, -0.0000000000000000000 ) ) ;
#262 = PRODUCT_RELATED_PRODUCT_CATEGORY ( 'detail', '', ( #52 ) ) ;
#263 = LOCAL_TIME ( 12, 28, 34.00000000000000000, #2 ) ;
#264 = CARTESIAN_POINT ( 'NONE',  ( 45.00000000000000000, 45.00000000000000000, 45.00000000000000000 ) ) ;
#265 = EDGE_CURVE ( 'NONE', #193, #76, #209, .T. ) ;
#266 = VECTOR ( 'NONE', #65, 1000.000000000000000 ) ;
#267 = CLOSED_SHELL ( 'NONE', ( #218, #260, #303, #147, #175 ) ) ;
#268 = ORIENTED_EDGE ( 'NONE', *, *, #210, .F. ) ;
#269 = CARTESIAN_POINT ( 'NONE',  ( 45.00000000000000000, 45.00000000000000000, 45.00000000000000000 ) ) ;
#270 = CALENDAR_DATE ( 2014, 5, 6 ) ;
#271 = LINE ( 'NONE', #22, #164 ) ;
#272 = AXIS2_PLACEMENT_3D ( 'NONE', #244, #93, #195 ) ;
#273 = PERSON_AND_ORGANIZATION ( #55, #319 ) ;
#274 = LINE ( 'NONE', #207, #99 ) ;
#275 = APPLICATION_CONTEXT ( 'configuration controlled 3d designs of mechanical parts and assemblies' ) ;
#276 = APPROVAL_ROLE ( '' ) ;
#277 = COORDINATED_UNIVERSAL_TIME_OFFSET ( 7, 0, .BEHIND. ) ;
#278 = PERSON_AND_ORGANIZATION_ROLE ( 'creator' ) ;
#279 = MANIFOLD_SOLID_BREP ( 'Boss-Extrude1', #267 ) ;
#280 = DATE_TIME_ROLE ( 'creation_date' ) ;
#281 = EDGE_CURVE ( 'NONE', #159, #193, #271, .T. ) ;
#282 = APPROVAL_STATUS ( 'not_yet_approved' ) ;
#283 = APPROVAL_ROLE ( '' ) ;
#284 = EDGE_CURVE ( 'NONE', #76, #191, #290, .T. ) ;
#285 = LOCAL_TIME ( 12, 28, 34.00000000000000000, #43 ) ;
#286 = PERSON_AND_ORGANIZATION_ROLE ( 'creator' ) ;
#287 = ORIENTED_EDGE ( 'NONE', *, *, #120, .F. ) ;
#288 = ORIENTED_EDGE ( 'NONE', *, *, #208, .F. ) ;
#289 = PERSON_AND_ORGANIZATION_ROLE ( 'design_supplier' ) ;
#290 = LINE ( 'NONE', #33, #137 ) ;
#291 = LINE ( 'NONE', #238, #230 ) ;
#292 = SECURITY_CLASSIFICATION_LEVEL ( 'unclassified' ) ;
#293 = ORIENTED_EDGE ( 'NONE', *, *, #284, .T. ) ;
#294 = PERSON_AND_ORGANIZATION_ROLE ( 'classification_officer' ) ;
#295 = ORIENTED_EDGE ( 'NONE', *, *, #302, .T. ) ;
#296 = CARTESIAN_POINT ( 'NONE',  ( 45.00000000000000000, 45.00000000000000000, 0.0000000000000000000 ) ) ;
#297 =( NAMED_UNIT ( * ) PLANE_ANGLE_UNIT ( ) SI_UNIT ( $, .RADIAN. ) );
#298 = DIRECTION ( 'NONE',  ( -8.164311994315687600E-017, 1.000000000000000000, 0.0000000000000000000 ) ) ;
#299 = EDGE_LOOP ( 'NONE', ( #293, #169, #182, #107 ) ) ;
#300 = DIRECTION ( 'NONE',  ( -0.0000000000000000000, -1.000000000000000000, -0.0000000000000000000 ) ) ;
#301 = VECTOR ( 'NONE', #300, 1000.000000000000000 ) ;
#302 = EDGE_CURVE ( 'NONE', #31, #96, #58, .T. ) ;
#303 = ADVANCED_FACE ( 'NONE', ( #135 ), #27, .F. ) ;
#304 = CARTESIAN_POINT ( 'NONE',  ( 0.0000000000000000000, 0.0000000000000000000, 45.00000000000000000 ) ) ;
#305 = COORDINATED_UNIVERSAL_TIME_OFFSET ( 7, 0, .BEHIND. ) ;
#306 = ORIENTED_EDGE ( 'NONE', *, *, #91, .F. ) ;
#307 = DIRECTION ( 'NONE',  ( 0.0000000000000000000, 0.0000000000000000000, 1.000000000000000000 ) ) ;
#308 = AXIS2_PLACEMENT_3D ( 'NONE', #70, #298, #251 ) ;
#309 = APPLICATION_PROTOCOL_DEFINITION ( 'international standard', 'config_control_design', 1994, #275 ) ;
#310 = ORIENTED_EDGE ( 'NONE', *, *, #72, .T. ) ;
#311 = FACE_OUTER_BOUND ( 'NONE', #118, .T. ) ;
#312 = ORIENTED_EDGE ( 'NONE', *, *, #284, .F. ) ;
#313 = EDGE_LOOP ( 'NONE', ( #127, #146, #212 ) ) ;
#314 = ORIENTED_EDGE ( 'NONE', *, *, #220, .T. ) ;
#315 = PERSON_AND_ORGANIZATION ( #55, #319 ) ;
#316 = EDGE_LOOP ( 'NONE', ( #314, #125, #19, #204 ) ) ;
#317 = CARTESIAN_POINT ( 'NONE',  ( 0.0000000000000000000, 45.00000000000000000, 45.00000000000000000 ) ) ;
#318 = APPLICATION_PROTOCOL_DEFINITION ( 'international standard', 'config_control_design', 1994, #176 ) ;
#319 = ORGANIZATION ( 'UNSPECIFIED', 'UNSPECIFIED', '' ) ;
#320 = PERSON_AND_ORGANIZATION_ROLE ( 'design_owner' ) ;
#321 = PLANE ( 'NONE',  #214 ) ;
ENDSEC;
END-ISO-10303-21;
