ISO-10303-21;
HEADER;
FILE_DESCRIPTION (( 'STEP AP214' ),
    '1' );
FILE_NAME ('4791-E0W.STEP',
    '2009-12-21T17:09:05',
    ( ' ' ),
    ( ' ' ),
    'SwSTEP 2.0',
    'SolidWorks 2009',
    '' );
FILE_SCHEMA (( 'AUTOMOTIVE_DESIGN' ));
ENDSEC;

DATA;
#1 =( NAMED_UNIT ( * ) PLANE_ANGLE_UNIT ( ) SI_UNIT ( $, .RADIAN. ) );
#2 = CIRCLE ( 'NONE', #3, 6.349999999999998800 ) ;
#3 = AXIS2_PLACEMENT_3D ( 'NONE', #10, #4, #6 ) ;
#4 = DIRECTION ( 'NONE',  ( -0.0000000000000000000, -0.0000000000000000000, 1.000000000000000000 ) ) ;
#5 = DIRECTION ( 'NONE',  ( -0.0000000000000000000, -0.0000000000000000000, 1.000000000000000000 ) ) ;
#6 = DIRECTION ( 'NONE',  ( 1.000000000000000000, 0.0000000000000000000, 0.0000000000000000000 ) ) ;
#7 =( LENGTH_UNIT ( ) NAMED_UNIT ( * ) SI_UNIT ( .MILLI., .METRE. ) );
#8 = DIRECTION ( 'NONE',  ( 1.000000000000000000, 0.0000000000000000000, 0.0000000000000000000 ) ) ;
#9 =( NAMED_UNIT ( * ) SI_UNIT ( $, .STERADIAN. ) SOLID_ANGLE_UNIT ( ) );
#10 = CARTESIAN_POINT ( 'NONE',  ( 0.0000000000000000000, 0.0000000000000000000, 2.147939400163324700 ) ) ;
#11 =( NAMED_UNIT ( * ) SI_UNIT ( $, .STERADIAN. ) SOLID_ANGLE_UNIT ( ) );
#12 =( GEOMETRIC_REPRESENTATION_CONTEXT ( 3 ) GLOBAL_UNCERTAINTY_ASSIGNED_CONTEXT ( ( #13 ) ) GLOBAL_UNIT_ASSIGNED_CONTEXT ( ( #245, #15, #11 ) ) REPRESENTATION_CONTEXT ( 'NONE', 'WORKASPACE' ) );
#13 = UNCERTAINTY_MEASURE_WITH_UNIT (LENGTH_MEASURE( 1.000000000000000100E-005 ), #245, 'distance_accuracy_value', 'NONE');
#14 = UNCERTAINTY_MEASURE_WITH_UNIT (LENGTH_MEASURE( 1.000000000000000100E-005 ), #7, 'distance_accuracy_value', 'NONE');
#15 =( NAMED_UNIT ( * ) PLANE_ANGLE_UNIT ( ) SI_UNIT ( $, .RADIAN. ) );
#16 =( GEOMETRIC_REPRESENTATION_CONTEXT ( 3 ) GLOBAL_UNCERTAINTY_ASSIGNED_CONTEXT ( ( #14 ) ) GLOBAL_UNIT_ASSIGNED_CONTEXT ( ( #7, #1, #9 ) ) REPRESENTATION_CONTEXT ( 'NONE', 'WORKASPACE' ) );
#17 = UNCERTAINTY_MEASURE_WITH_UNIT (LENGTH_MEASURE( 1.000000000000000100E-005 ), #18, 'distance_accuracy_value', 'NONE');
#18 =( LENGTH_UNIT ( ) NAMED_UNIT ( * ) SI_UNIT ( .MILLI., .METRE. ) );
#19 = FILL_AREA_STYLE_COLOUR ( '', #23 ) ;
#20 =( NAMED_UNIT ( * ) SI_UNIT ( $, .STERADIAN. ) SOLID_ANGLE_UNIT ( ) );
#21 = ADVANCED_BREP_SHAPE_REPRESENTATION ( '4791-E0W', ( #52, #250 ), #12 ) ;
#22 = SURFACE_STYLE_FILL_AREA ( #24 ) ;
#23 = COLOUR_RGB ( '',0.7960784313725489700, 0.8235294117647058400, 0.9372549019607843100 ) ;
#24 = FILL_AREA_STYLE ('',( #19 ) ) ;
#25 = SURFACE_SIDE_STYLE ('',( #22 ) ) ;
#26 =( NAMED_UNIT ( * ) PLANE_ANGLE_UNIT ( ) SI_UNIT ( $, .RADIAN. ) );
#27 = MECHANICAL_DESIGN_GEOMETRIC_PRESENTATION_REPRESENTATION (  '', ( #31 ), #29 ) ;
#28 = PRESENTATION_LAYER_ASSIGNMENT (  '', '', ( #31 ) ) ;
#29 =( GEOMETRIC_REPRESENTATION_CONTEXT ( 3 ) GLOBAL_UNCERTAINTY_ASSIGNED_CONTEXT ( ( #17 ) ) GLOBAL_UNIT_ASSIGNED_CONTEXT ( ( #18, #26, #20 ) ) REPRESENTATION_CONTEXT ( 'NONE', 'WORKASPACE' ) );
#30 = PRESENTATION_STYLE_ASSIGNMENT (( #32 ) ) ;
#31 = STYLED_ITEM ( 'NONE', ( #30 ), #21 ) ;
#32 = SURFACE_STYLE_USAGE ( .BOTH. , #25 ) ;
#33 = EDGE_CURVE ( 'NONE', #50, #34, #82, .T. ) ;
#34 = VERTEX_POINT ( 'NONE', #68 ) ;
#35 = ADVANCED_FACE ( 'NONE', ( #67 ), #116, .T. ) ;
#36 = EDGE_LOOP ( 'NONE', ( #39, #86, #62, #64, #65 ) ) ;
#37 = EDGE_CURVE ( 'NONE', #38, #78, #109, .T. ) ;
#38 = VERTEX_POINT ( 'NONE', #117 ) ;
#39 = ORIENTED_EDGE ( 'NONE', *, *, #47, .F. ) ;
#40 = EDGE_LOOP ( 'NONE', ( #77, #88, #89, #59 ) ) ;
#41 = EDGE_LOOP ( 'NONE', ( #53, #60 ) ) ;
#42 = ORIENTED_EDGE ( 'NONE', *, *, #56, .T. ) ;
#43 = ORIENTED_EDGE ( 'NONE', *, *, #37, .F. ) ;
#44 = EDGE_LOOP ( 'NONE', ( #43, #83, #42, #85 ) ) ;
#45 = EDGE_CURVE ( 'NONE', #50, #72, #111, .T. ) ;
#46 = ORIENTED_EDGE ( 'NONE', *, *, #47, .T. ) ;
#47 = EDGE_CURVE ( 'NONE', #34, #48, #131, .T. ) ;
#48 = VERTEX_POINT ( 'NONE', #127 ) ;
#49 = ORIENTED_EDGE ( 'NONE', *, *, #33, .T. ) ;
#50 = VERTEX_POINT ( 'NONE', #139 ) ;
#51 = EDGE_LOOP ( 'NONE', ( #49, #46, #80, #55, #79 ) ) ;
#52 = MANIFOLD_SOLID_BREP ( 'NONE', #63 ) ;
#53 = ORIENTED_EDGE ( 'NONE', *, *, #33, .F. ) ;
#54 = EDGE_CURVE ( 'NONE', #78, #48, #2, .T. ) ;
#55 = ORIENTED_EDGE ( 'NONE', *, *, #73, .F. ) ;
#56 = EDGE_CURVE ( 'NONE', #58, #72, #162, .T. ) ;
#57 = ADVANCED_FACE ( 'NONE', ( #146 ), #150, .F. ) ;
#58 = VERTEX_POINT ( 'NONE', #163 ) ;
#59 = ORIENTED_EDGE ( 'NONE', *, *, #74, .T. ) ;
#60 = ORIENTED_EDGE ( 'NONE', *, *, #61, .F. ) ;
#61 = EDGE_CURVE ( 'NONE', #34, #50, #149, .T. ) ;
#62 = ORIENTED_EDGE ( 'NONE', *, *, #45, .T. ) ;
#63 = CLOSED_SHELL ( 'NONE', ( #35, #57, #76, #75, #84 ) ) ;
#64 = ORIENTED_EDGE ( 'NONE', *, *, #56, .F. ) ;
#65 = ORIENTED_EDGE ( 'NONE', *, *, #74, .F. ) ;
#66 = COLOUR_RGB ( '',0.9568627450980391500, 0.9490196078431372100, 0.9607843137254902200 ) ;
#67 = FACE_OUTER_BOUND ( 'NONE', #51, .T. ) ;
#68 = CARTESIAN_POINT ( 'NONE',  ( -6.350000000000001400, 7.776250346772097400E-016, -2.147939400163324700 ) ) ;
#69 = DIRECTION ( 'NONE',  ( 1.000000000000000000, 0.0000000000000000000, 0.0000000000000000000 ) ) ;
#70 = DIRECTION ( 'NONE',  ( -0.0000000000000000000, -0.0000000000000000000, 1.000000000000000000 ) ) ;
#71 = CARTESIAN_POINT ( 'NONE',  ( 0.0000000000000000000, 0.0000000000000000000, -2.147939400163324700 ) ) ;
#72 = VERTEX_POINT ( 'NONE', #176 ) ;
#73 = EDGE_CURVE ( 'NONE', #72, #78, #175, .T. ) ;
#74 = EDGE_CURVE ( 'NONE', #48, #58, #190, .T. ) ;
#75 = ADVANCED_FACE ( 'NONE', ( #191 ), #192, .F. ) ;
#76 = ADVANCED_FACE ( 'NONE', ( #204 ), #238, .F. ) ;
#77 = ORIENTED_EDGE ( 'NONE', *, *, #87, .F. ) ;
#78 = VERTEX_POINT ( 'NONE', #224 ) ;
#79 = ORIENTED_EDGE ( 'NONE', *, *, #45, .F. ) ;
#80 = ORIENTED_EDGE ( 'NONE', *, *, #54, .F. ) ;
#81 = AXIS2_PLACEMENT_3D ( 'NONE', #71, #70, #69 ) ;
#82 = CIRCLE ( 'NONE', #81, 6.350000000000000500 ) ;
#83 = ORIENTED_EDGE ( 'NONE', *, *, #87, .T. ) ;
#84 = ADVANCED_FACE ( 'NONE', ( #216 ), #236, .T. ) ;
#85 = ORIENTED_EDGE ( 'NONE', *, *, #73, .T. ) ;
#86 = ORIENTED_EDGE ( 'NONE', *, *, #61, .T. ) ;
#87 = EDGE_CURVE ( 'NONE', #38, #58, #232, .T. ) ;
#88 = ORIENTED_EDGE ( 'NONE', *, *, #37, .T. ) ;
#89 = ORIENTED_EDGE ( 'NONE', *, *, #54, .T. ) ;
#90 = MECHANICAL_DESIGN_GEOMETRIC_PRESENTATION_REPRESENTATION (  '', ( #114 ), #97 ) ;
#91 =( NAMED_UNIT ( * ) SI_UNIT ( $, .STERADIAN. ) SOLID_ANGLE_UNIT ( ) );
#92 =( NAMED_UNIT ( * ) PLANE_ANGLE_UNIT ( ) SI_UNIT ( $, .RADIAN. ) );
#93 = SURFACE_STYLE_FILL_AREA ( #94 ) ;
#94 = FILL_AREA_STYLE ('',( #95 ) ) ;
#95 = FILL_AREA_STYLE_COLOUR ( '', #66 ) ;
#96 = CARTESIAN_POINT ( 'NONE',  ( 0.0000000000000000000, 0.0000000000000000000, 8.619213870265999900 ) ) ;
#97 =( GEOMETRIC_REPRESENTATION_CONTEXT ( 3 ) GLOBAL_UNCERTAINTY_ASSIGNED_CONTEXT ( ( #112 ) ) GLOBAL_UNIT_ASSIGNED_CONTEXT ( ( #121, #98, #113 ) ) REPRESENTATION_CONTEXT ( 'NONE', 'WORKASPACE' ) );
#98 =( NAMED_UNIT ( * ) PLANE_ANGLE_UNIT ( ) SI_UNIT ( $, .RADIAN. ) );
#99 = SURFACE_SIDE_STYLE ('',( #93 ) ) ;
#100 = PRESENTATION_LAYER_ASSIGNMENT (  '', '', ( #114 ) ) ;
#101 = MECHANICAL_DESIGN_GEOMETRIC_PRESENTATION_REPRESENTATION (  '', ( #103 ), #122 ) ;
#102 = PRESENTATION_LAYER_ASSIGNMENT (  '', '', ( #103 ) ) ;
#103 = STYLED_ITEM ( 'NONE', ( #104 ), #52 ) ;
#104 = PRESENTATION_STYLE_ASSIGNMENT (( #105 ) ) ;
#105 = SURFACE_STYLE_USAGE ( .BOTH. , #106 ) ;
#106 = SURFACE_SIDE_STYLE ('',( #135 ) ) ;
#107 = PRESENTATION_STYLE_ASSIGNMENT (( #125 ) ) ;
#108 = CARTESIAN_POINT ( 'NONE',  ( 0.0000000000000000000, 0.0000000000000000000, 27.08206059983667700 ) ) ;
#109 = CIRCLE ( 'NONE', #120, 25.73000000000000400 ) ;
#110 = CARTESIAN_POINT ( 'NONE',  ( 6.349999999999999600, 0.0000000000000000000, 8.619213870265999900 ) ) ;
#111 = LINE ( 'NONE', #110, #133 ) ;
#112 = UNCERTAINTY_MEASURE_WITH_UNIT (LENGTH_MEASURE( 1.000000000000000100E-005 ), #121, 'distance_accuracy_value', 'NONE');
#113 =( NAMED_UNIT ( * ) SI_UNIT ( $, .STERADIAN. ) SOLID_ANGLE_UNIT ( ) );
#114 = STYLED_ITEM ( 'NONE', ( #107 ), #35 ) ;
#115 = AXIS2_PLACEMENT_3D ( 'NONE', #96, #124, #123 ) ;
#116 = CYLINDRICAL_SURFACE ( 'NONE', #115, 6.349999999999999600 ) ;
#117 = CARTESIAN_POINT ( 'NONE',  ( 0.0000000000000000000, 1.575456074192488300E-015, 1.352060599836672200 ) ) ;
#118 = DIRECTION ( 'NONE',  ( 0.0000000000000000000, 0.0000000000000000000, -1.000000000000000000 ) ) ;
#119 = DIRECTION ( 'NONE',  ( 1.000000000000000000, 0.0000000000000000000, 0.0000000000000000000 ) ) ;
#120 = AXIS2_PLACEMENT_3D ( 'NONE', #108, #119, #118 ) ;
#121 =( LENGTH_UNIT ( ) NAMED_UNIT ( * ) SI_UNIT ( .MILLI., .METRE. ) );
#122 =( GEOMETRIC_REPRESENTATION_CONTEXT ( 3 ) GLOBAL_UNCERTAINTY_ASSIGNED_CONTEXT ( ( #134 ) ) GLOBAL_UNIT_ASSIGNED_CONTEXT ( ( #126, #92, #91 ) ) REPRESENTATION_CONTEXT ( 'NONE', 'WORKASPACE' ) );
#123 = DIRECTION ( 'NONE',  ( 1.000000000000000000, 0.0000000000000000000, 0.0000000000000000000 ) ) ;
#124 = DIRECTION ( 'NONE',  ( -0.0000000000000000000, -0.0000000000000000000, 1.000000000000000000 ) ) ;
#125 = SURFACE_STYLE_USAGE ( .BOTH. , #99 ) ;
#126 =( LENGTH_UNIT ( ) NAMED_UNIT ( * ) SI_UNIT ( .MILLI., .METRE. ) );
#127 = CARTESIAN_POINT ( 'NONE',  ( -6.349999999999998800, 7.776250346772094400E-016, 2.147939400163324700 ) ) ;
#128 = DIRECTION ( 'NONE',  ( -0.0000000000000000000, -0.0000000000000000000, 1.000000000000000000 ) ) ;
#129 = VECTOR ( 'NONE', #128, 1000.000000000000000 ) ;
#130 = CARTESIAN_POINT ( 'NONE',  ( -6.349999999999999600, 7.776250346772095400E-016, 8.619213870265999900 ) ) ;
#131 = LINE ( 'NONE', #130, #129 ) ;
#132 = DIRECTION ( 'NONE',  ( -0.0000000000000000000, -0.0000000000000000000, 1.000000000000000000 ) ) ;
#133 = VECTOR ( 'NONE', #132, 1000.000000000000000 ) ;
#134 = UNCERTAINTY_MEASURE_WITH_UNIT (LENGTH_MEASURE( 1.000000000000000100E-005 ), #126, 'distance_accuracy_value', 'NONE');
#135 = SURFACE_STYLE_FILL_AREA ( #136 ) ;
#136 = FILL_AREA_STYLE ('',( #137 ) ) ;
#137 = FILL_AREA_STYLE_COLOUR ( '', #138 ) ;
#138 = COLOUR_RGB ( '',0.7960784313725489700, 0.8235294117647058400, 0.9372549019607843100 ) ;
#139 = CARTESIAN_POINT ( 'NONE',  ( 6.350000000000000500, 0.0000000000000000000, -2.147939400163324700 ) ) ;
#140 = DIRECTION ( 'NONE',  ( 1.000000000000000000, 0.0000000000000000000, 0.0000000000000000000 ) ) ;
#141 = DIRECTION ( 'NONE',  ( -0.0000000000000000000, -0.0000000000000000000, 1.000000000000000000 ) ) ;
#142 = FILL_AREA_STYLE ('',( #145 ) ) ;
#143 = COLOUR_RGB ( '',0.9568627450980391500, 0.9490196078431372100, 0.9607843137254902200 ) ;
#144 = MECHANICAL_DESIGN_GEOMETRIC_PRESENTATION_REPRESENTATION (  '', ( #159 ), #168 ) ;
#145 = FILL_AREA_STYLE_COLOUR ( '', #143 ) ;
#146 = FACE_OUTER_BOUND ( 'NONE', #44, .T. ) ;
#147 = CARTESIAN_POINT ( 'NONE',  ( 0.0000000000000000000, 0.0000000000000000000, -2.147939400163324700 ) ) ;
#148 = AXIS2_PLACEMENT_3D ( 'NONE', #147, #5, #8 ) ;
#149 = CIRCLE ( 'NONE', #148, 6.350000000000000500 ) ;
#150 = SPHERICAL_SURFACE ( 'NONE', #167, 25.73000000000000400 ) ;
#151 = SURFACE_STYLE_USAGE ( .BOTH. , #152 ) ;
#152 = SURFACE_SIDE_STYLE ('',( #153 ) ) ;
#153 = SURFACE_STYLE_FILL_AREA ( #142 ) ;
#154 = CARTESIAN_POINT ( 'NONE',  ( 0.0000000000000000000, 0.0000000000000000000, 2.147939400163324700 ) ) ;
#155 =( NAMED_UNIT ( * ) PLANE_ANGLE_UNIT ( ) SI_UNIT ( $, .RADIAN. ) );
#156 = UNCERTAINTY_MEASURE_WITH_UNIT (LENGTH_MEASURE( 1.000000000000000100E-005 ), #169, 'distance_accuracy_value', 'NONE');
#157 =( NAMED_UNIT ( * ) SI_UNIT ( $, .STERADIAN. ) SOLID_ANGLE_UNIT ( ) );
#158 = PRESENTATION_LAYER_ASSIGNMENT (  '', '', ( #159 ) ) ;
#159 = STYLED_ITEM ( 'NONE', ( #160 ), #57 ) ;
#160 = PRESENTATION_STYLE_ASSIGNMENT (( #151 ) ) ;
#161 = AXIS2_PLACEMENT_3D ( 'NONE', #154, #141, #140 ) ;
#162 = CIRCLE ( 'NONE', #161, 6.349999999999998800 ) ;
#163 = CARTESIAN_POINT ( 'NONE',  ( -7.776250346772097400E-016, -6.350000000000001400, 2.147939400163320700 ) ) ;
#164 = DIRECTION ( 'NONE',  ( 0.0000000000000000000, 1.000000000000000000, 0.0000000000000000000 ) ) ;
#165 = DIRECTION ( 'NONE',  ( -1.000000000000000000, 0.0000000000000000000, 0.0000000000000000000 ) ) ;
#166 = CARTESIAN_POINT ( 'NONE',  ( 0.0000000000000000000, 0.0000000000000000000, 27.08206059983667700 ) ) ;
#167 = AXIS2_PLACEMENT_3D ( 'NONE', #166, #165, #164 ) ;
#168 =( GEOMETRIC_REPRESENTATION_CONTEXT ( 3 ) GLOBAL_UNCERTAINTY_ASSIGNED_CONTEXT ( ( #156 ) ) GLOBAL_UNIT_ASSIGNED_CONTEXT ( ( #169, #155, #157 ) ) REPRESENTATION_CONTEXT ( 'NONE', 'WORKASPACE' ) );
#169 =( LENGTH_UNIT ( ) NAMED_UNIT ( * ) SI_UNIT ( .MILLI., .METRE. ) );
#170 = DIRECTION ( 'NONE',  ( -0.0000000000000000000, -0.0000000000000000000, 1.000000000000000000 ) ) ;
#171 = DIRECTION ( 'NONE',  ( 1.000000000000000000, 0.0000000000000000000, 0.0000000000000000000 ) ) ;
#172 = DIRECTION ( 'NONE',  ( -0.0000000000000000000, -0.0000000000000000000, 1.000000000000000000 ) ) ;
#173 = CARTESIAN_POINT ( 'NONE',  ( 0.0000000000000000000, 0.0000000000000000000, 2.147939400163324700 ) ) ;
#174 = AXIS2_PLACEMENT_3D ( 'NONE', #173, #172, #171 ) ;
#175 = CIRCLE ( 'NONE', #174, 6.349999999999998800 ) ;
#176 = CARTESIAN_POINT ( 'NONE',  ( 6.349999999999998800, 0.0000000000000000000, 2.147939400163324700 ) ) ;
#177 = MECHANICAL_DESIGN_GEOMETRIC_PRESENTATION_REPRESENTATION (  '', ( #179 ), #193 ) ;
#178 = PRESENTATION_LAYER_ASSIGNMENT (  '', '', ( #179 ) ) ;
#179 = STYLED_ITEM ( 'NONE', ( #180 ), #75 ) ;
#180 = PRESENTATION_STYLE_ASSIGNMENT (( #181 ) ) ;
#181 = SURFACE_STYLE_USAGE ( .BOTH. , #182 ) ;
#182 = SURFACE_SIDE_STYLE ('',( #183 ) ) ;
#183 = SURFACE_STYLE_FILL_AREA ( #184 ) ;
#184 = FILL_AREA_STYLE ('',( #185 ) ) ;
#185 = FILL_AREA_STYLE_COLOUR ( '', #186 ) ;
#186 = COLOUR_RGB ( '',0.9568627450980391500, 0.9490196078431372100, 0.9607843137254902200 ) ;
#187 = DIRECTION ( 'NONE',  ( 1.000000000000000000, 0.0000000000000000000, 0.0000000000000000000 ) ) ;
#188 = AXIS2_PLACEMENT_3D ( 'NONE', #189, #170, #187 ) ;
#189 = CARTESIAN_POINT ( 'NONE',  ( 0.0000000000000000000, 0.0000000000000000000, 2.147939400163324700 ) ) ;
#190 = CIRCLE ( 'NONE', #188, 6.349999999999998800 ) ;
#191 = FACE_OUTER_BOUND ( 'NONE', #41, .T. ) ;
#192 = PLANE ( 'NONE',  #208 ) ;
#193 =( GEOMETRIC_REPRESENTATION_CONTEXT ( 3 ) GLOBAL_UNCERTAINTY_ASSIGNED_CONTEXT ( ( #211 ) ) GLOBAL_UNIT_ASSIGNED_CONTEXT ( ( #195, #194, #212 ) ) REPRESENTATION_CONTEXT ( 'NONE', 'WORKASPACE' ) );
#194 =( NAMED_UNIT ( * ) PLANE_ANGLE_UNIT ( ) SI_UNIT ( $, .RADIAN. ) );
#195 =( LENGTH_UNIT ( ) NAMED_UNIT ( * ) SI_UNIT ( .MILLI., .METRE. ) );
#196 = MECHANICAL_DESIGN_GEOMETRIC_PRESENTATION_REPRESENTATION (  '', ( #198 ), #16 ) ;
#197 = PRESENTATION_LAYER_ASSIGNMENT (  '', '', ( #198 ) ) ;
#198 = STYLED_ITEM ( 'NONE', ( #199 ), #76 ) ;
#199 = PRESENTATION_STYLE_ASSIGNMENT (( #200 ) ) ;
#200 = SURFACE_STYLE_USAGE ( .BOTH. , #201 ) ;
#201 = SURFACE_SIDE_STYLE ('',( #202 ) ) ;
#202 = SURFACE_STYLE_FILL_AREA ( #203 ) ;
#203 = FILL_AREA_STYLE ('',( #209 ) ) ;
#204 = FACE_OUTER_BOUND ( 'NONE', #40, .T. ) ;
#205 = DIRECTION ( 'NONE',  ( 1.000000000000000000, 0.0000000000000000000, 0.0000000000000000000 ) ) ;
#206 = DIRECTION ( 'NONE',  ( 0.0000000000000000000, -0.0000000000000000000, 1.000000000000000000 ) ) ;
#207 = CARTESIAN_POINT ( 'NONE',  ( 0.0000000000000000000, 6.429395695523603200E-016, -2.147939400163325200 ) ) ;
#208 = AXIS2_PLACEMENT_3D ( 'NONE', #207, #206, #205 ) ;
#209 = FILL_AREA_STYLE_COLOUR ( '', #210 ) ;
#210 = COLOUR_RGB ( '',0.9568627450980391500, 0.9490196078431372100, 0.9607843137254902200 ) ;
#211 = UNCERTAINTY_MEASURE_WITH_UNIT (LENGTH_MEASURE( 1.000000000000000100E-005 ), #195, 'distance_accuracy_value', 'NONE');
#212 =( NAMED_UNIT ( * ) SI_UNIT ( $, .STERADIAN. ) SOLID_ANGLE_UNIT ( ) );
#213 = AXIS2_PLACEMENT_3D ( 'NONE', #227, #243, #239 ) ;
#214 = MECHANICAL_DESIGN_GEOMETRIC_PRESENTATION_REPRESENTATION (  '', ( #240 ), #234 ) ;
#215 = UNCERTAINTY_MEASURE_WITH_UNIT (LENGTH_MEASURE( 1.000000000000000100E-005 ), #237, 'distance_accuracy_value', 'NONE');
#216 = FACE_OUTER_BOUND ( 'NONE', #36, .T. ) ;
#217 =( NAMED_UNIT ( * ) SI_UNIT ( $, .STERADIAN. ) SOLID_ANGLE_UNIT ( ) );
#218 = PRESENTATION_STYLE_ASSIGNMENT (( #241 ) ) ;
#219 = DIRECTION ( 'NONE',  ( 1.000000000000000000, 0.0000000000000000000, 0.0000000000000000000 ) ) ;
#220 = DIRECTION ( 'NONE',  ( -0.0000000000000000000, -0.0000000000000000000, 1.000000000000000000 ) ) ;
#221 =( NAMED_UNIT ( * ) PLANE_ANGLE_UNIT ( ) SI_UNIT ( $, .RADIAN. ) );
#222 = CARTESIAN_POINT ( 'NONE',  ( 0.0000000000000000000, 0.0000000000000000000, 8.619213870265999900 ) ) ;
#223 = AXIS2_PLACEMENT_3D ( 'NONE', #222, #220, #219 ) ;
#224 = CARTESIAN_POINT ( 'NONE',  ( 0.0000000000000000000, 6.350000000000001400, 2.147939400163320700 ) ) ;
#225 = FILL_AREA_STYLE_COLOUR ( '', #242 ) ;
#226 = SURFACE_STYLE_FILL_AREA ( #235 ) ;
#227 = CARTESIAN_POINT ( 'NONE',  ( 0.0000000000000000000, 0.0000000000000000000, 27.08206059983667700 ) ) ;
#228 = DIRECTION ( 'NONE',  ( -1.224606353822377000E-016, -1.000000000000000000, 0.0000000000000000000 ) ) ;
#229 = DIRECTION ( 'NONE',  ( -1.000000000000000000, 1.224606353822377300E-016, 0.0000000000000000000 ) ) ;
#230 = CARTESIAN_POINT ( 'NONE',  ( 0.0000000000000000000, 0.0000000000000000000, 27.08206059983667700 ) ) ;
#231 = AXIS2_PLACEMENT_3D ( 'NONE', #230, #229, #228 ) ;
#232 = CIRCLE ( 'NONE', #231, 25.73000000000000400 ) ;
#233 = SURFACE_SIDE_STYLE ('',( #226 ) ) ;
#234 =( GEOMETRIC_REPRESENTATION_CONTEXT ( 3 ) GLOBAL_UNCERTAINTY_ASSIGNED_CONTEXT ( ( #215 ) ) GLOBAL_UNIT_ASSIGNED_CONTEXT ( ( #237, #221, #217 ) ) REPRESENTATION_CONTEXT ( 'NONE', 'WORKASPACE' ) );
#235 = FILL_AREA_STYLE ('',( #225 ) ) ;
#236 = CYLINDRICAL_SURFACE ( 'NONE', #223, 6.349999999999999600 ) ;
#237 =( LENGTH_UNIT ( ) NAMED_UNIT ( * ) SI_UNIT ( .MILLI., .METRE. ) );
#238 = SPHERICAL_SURFACE ( 'NONE', #213, 25.73000000000000400 ) ;
#239 = DIRECTION ( 'NONE',  ( 0.0000000000000000000, 1.000000000000000000, 0.0000000000000000000 ) ) ;
#240 = STYLED_ITEM ( 'NONE', ( #218 ), #84 ) ;
#241 = SURFACE_STYLE_USAGE ( .BOTH. , #233 ) ;
#242 = COLOUR_RGB ( '',0.9568627450980391500, 0.9490196078431372100, 0.9607843137254902200 ) ;
#243 = DIRECTION ( 'NONE',  ( -1.000000000000000000, 0.0000000000000000000, 0.0000000000000000000 ) ) ;
#244 = PRESENTATION_LAYER_ASSIGNMENT (  '', '', ( #240 ) ) ;
#245 =( LENGTH_UNIT ( ) NAMED_UNIT ( * ) SI_UNIT ( .MILLI., .METRE. ) );
#246 = APPLICATION_PROTOCOL_DEFINITION ( 'draft international standard', 'automotive_design', 1998, #255 ) ;
#247 = PRODUCT_RELATED_PRODUCT_CATEGORY ( 'part', '', ( #257 ) ) ;
#248 = PRODUCT_DEFINITION_FORMATION_WITH_SPECIFIED_SOURCE ( 'ANY', '', #257, .NOT_KNOWN. ) ;
#249 = SHAPE_DEFINITION_REPRESENTATION ( #261, #21 ) ;
#250 = AXIS2_PLACEMENT_3D ( 'NONE', #260, #254, #259 ) ;
#251 = PRODUCT_DEFINITION ( 'UNKNOWN', '', #248, #252 ) ;
#252 = PRODUCT_DEFINITION_CONTEXT ( 'detailed design', #256, 'design' ) ;
#253 = APPLICATION_PROTOCOL_DEFINITION ( 'draft international standard', 'automotive_design', 1998, #256 ) ;
#254 = DIRECTION ( 'NONE',  ( 0.0000000000000000000, 0.0000000000000000000, 1.000000000000000000 ) ) ;
#255 = APPLICATION_CONTEXT ( 'automotive_design' ) ;
#256 = APPLICATION_CONTEXT ( 'automotive_design' ) ;
#257 = PRODUCT ( '4791-E0W', '4791-E0W', '', ( #258 ) ) ;
#258 = PRODUCT_CONTEXT ( 'NONE', #255, 'mechanical' ) ;
#259 = DIRECTION ( 'NONE',  ( 1.000000000000000000, 0.0000000000000000000, 0.0000000000000000000 ) ) ;
#260 = CARTESIAN_POINT ( 'NONE',  ( 0.0000000000000000000, 0.0000000000000000000, 0.0000000000000000000 ) ) ;
#261 = PRODUCT_DEFINITION_SHAPE ( 'NONE', 'NONE',  #251 ) ;
ENDSEC;
END-ISO-10303-21;
