ISO-10303-21;
HEADER;
FILE_DESCRIPTION (( 'STEP AP203' ),
    '1' );
FILE_NAME ('Web Model 34467_34479.step',
    '2017-06-14T17:57:54',
    ( '' ),
    ( '' ),
    'SwSTEP 2.0',
    'SolidWorks 2016',
    '' );
FILE_SCHEMA (( 'CONFIG_CONTROL_DESIGN' ));
ENDSEC;

DATA;
#1 = CARTESIAN_POINT ( 'NONE',  ( 50.00000000000000000, 6.123233995736766100E-015, 0.6250000000000000000 ) ) ;
#2 = EDGE_CURVE ( 'NONE', #86, #15, #162, .T. ) ;
#3 = AXIS2_PLACEMENT_3D ( 'NONE', #29, #88, #167 ) ;
#4 = LINE ( 'NONE', #12, #172 ) ;
#5 = ORIENTED_EDGE ( 'NONE', *, *, #2, .T. ) ;
#6 = ORIENTED_EDGE ( 'NONE', *, *, #48, .F. ) ;
#7 = CARTESIAN_POINT ( 'NONE',  ( 0.0000000000000000000, 0.0000000000000000000, 0.6250000000000000000 ) ) ;
#8 = CC_DESIGN_APPROVAL ( #14, ( #67 ) ) ;
#9 = CARTESIAN_POINT ( 'NONE',  ( -50.00000000000000000, 0.0000000000000000000, -0.6250000000000000000 ) ) ;
#10 = DIRECTION ( 'NONE',  ( 0.0000000000000000000, 0.0000000000000000000, 1.000000000000000000 ) ) ;
#11 = CC_DESIGN_PERSON_AND_ORGANIZATION_ASSIGNMENT ( #96, #18, ( #163 ) ) ;
#12 = CARTESIAN_POINT ( 'NONE',  ( -50.00000000000000000, 0.0000000000000000000, 0.6250000000000000000 ) ) ;
#13 = CARTESIAN_POINT ( 'NONE',  ( 0.0000000000000000000, 0.0000000000000000000, 0.6250000000000000000 ) ) ;
#14 = APPROVAL ( #93, 'UNSPECIFIED' ) ;
#15 = VERTEX_POINT ( 'NONE', #1 ) ;
#16 = CLOSED_SHELL ( 'NONE', ( #110, #171, #90, #94 ) ) ;
#17 = APPLICATION_CONTEXT ( 'configuration controlled 3d designs of mechanical parts and assemblies' ) ;
#18 = PERSON_AND_ORGANIZATION_ROLE ( 'design_supplier' ) ;
#19 = CARTESIAN_POINT ( 'NONE',  ( 0.0000000000000000000, 0.0000000000000000000, 0.0000000000000000000 ) ) ;
#20 = EDGE_LOOP ( 'NONE', ( #5, #109 ) ) ;
#21 = ORIENTED_EDGE ( 'NONE', *, *, #48, .T. ) ;
#22 = SHAPE_DEFINITION_REPRESENTATION ( #157, #144 ) ;
#23 = DATE_AND_TIME ( #129, #38 ) ;
#24 = MANIFOLD_SOLID_BREP ( 'Boss-Extrude1', #16 ) ;
#25 = COORDINATED_UNIVERSAL_TIME_OFFSET ( 5, 0, .BEHIND. ) ;
#26 = DIRECTION ( 'NONE',  ( 1.000000000000000000, 0.0000000000000000000, 0.0000000000000000000 ) ) ;
#27 = DIRECTION ( 'NONE',  ( -1.000000000000000000, 0.0000000000000000000, 0.0000000000000000000 ) ) ;
#28 = LOCAL_TIME ( 13, 57, 54.00000000000000000, #154 ) ;
#29 = CARTESIAN_POINT ( 'NONE',  ( 0.0000000000000000000, 0.0000000000000000000, 0.6250000000000000000 ) ) ;
#30 = DATE_AND_TIME ( #98, #148 ) ;
#31 = DIRECTION ( 'NONE',  ( 0.0000000000000000000, 0.0000000000000000000, 1.000000000000000000 ) ) ;
#32 = AXIS2_PLACEMENT_3D ( 'NONE', #61, #31, #169 ) ;
#33 = PERSON_AND_ORGANIZATION_ROLE ( 'classification_officer' ) ;
#34 = ORGANIZATION ( 'UNSPECIFIED', 'UNSPECIFIED', '' ) ;
#35 = ORIENTED_EDGE ( 'NONE', *, *, #2, .F. ) ;
#36 = DIRECTION ( 'NONE',  ( 1.000000000000000000, 0.0000000000000000000, 0.0000000000000000000 ) ) ;
#37 = DATE_AND_TIME ( #80, #28 ) ;
#38 = LOCAL_TIME ( 13, 57, 54.00000000000000000, #51 ) ;
#39 = AXIS2_PLACEMENT_3D ( 'NONE', #91, #79, #151 ) ;
#40 = APPROVAL_PERSON_ORGANIZATION ( #138, #84, #120 ) ;
#41 = CALENDAR_DATE ( 2017, 14, 6 ) ;
#42 = PERSON_AND_ORGANIZATION ( #121, #34 ) ;
#43 = APPLICATION_PROTOCOL_DEFINITION ( 'international standard', 'config_control_design', 1994, #69 ) ;
#44 = COORDINATED_UNIVERSAL_TIME_OFFSET ( 5, 0, .BEHIND. ) ;
#45 = ORIENTED_EDGE ( 'NONE', *, *, #170, .F. ) ;
#46 = MECHANICAL_CONTEXT ( 'NONE', #17, 'mechanical' ) ;
#47 = ORIENTED_EDGE ( 'NONE', *, *, #130, .F. ) ;
#48 = EDGE_CURVE ( 'NONE', #134, #118, #112, .T. ) ;
#49 = PERSON_AND_ORGANIZATION ( #121, #34 ) ;
#50 = AXIS2_PLACEMENT_3D ( 'NONE', #13, #73, #27 ) ;
#51 = COORDINATED_UNIVERSAL_TIME_OFFSET ( 5, 0, .BEHIND. ) ;
#52 = CARTESIAN_POINT ( 'NONE',  ( 0.0000000000000000000, 0.0000000000000000000, 0.6250000000000000000 ) ) ;
#53 = DIRECTION ( 'NONE',  ( 1.000000000000000000, 0.0000000000000000000, 0.0000000000000000000 ) ) ;
#54 = PERSON_AND_ORGANIZATION_ROLE ( 'design_owner' ) ;
#55 = APPROVAL_PERSON_ORGANIZATION ( #49, #147, #145 ) ;
#56 = ORIENTED_EDGE ( 'NONE', *, *, #170, .T. ) ;
#57 = APPROVAL_STATUS ( 'not_yet_approved' ) ;
#58 = LINE ( 'NONE', #68, #152 ) ;
#59 = EDGE_CURVE ( 'NONE', #15, #118, #58, .T. ) ;
#60 = SECURITY_CLASSIFICATION ( '', '', #143 ) ;
#61 = CARTESIAN_POINT ( 'NONE',  ( 0.0000000000000000000, 0.0000000000000000000, -0.6250000000000000000 ) ) ;
#62 = CYLINDRICAL_SURFACE ( 'NONE', #50, 50.00000000000000000 ) ;
#63 = PERSON_AND_ORGANIZATION ( #121, #34 ) ;
#64 = APPROVAL_DATE_TIME ( #23, #147 ) ;
#65 = AXIS2_PLACEMENT_3D ( 'NONE', #7, #158, #149 ) ;
#66 = CIRCLE ( 'NONE', #128, 50.00000000000000000 ) ;
#67 = PRODUCT_DEFINITION ( 'UNKNOWN', '', #163, #100 ) ;
#68 = CARTESIAN_POINT ( 'NONE',  ( 50.00000000000000000, 6.123233995736766100E-015, 0.6250000000000000000 ) ) ;
#69 = APPLICATION_CONTEXT ( 'configuration controlled 3d designs of mechanical parts and assemblies' ) ;
#70 = DIRECTION ( 'NONE',  ( 1.000000000000000000, 0.0000000000000000000, 0.0000000000000000000 ) ) ;
#71 = DATE_TIME_ROLE ( 'classification_date' ) ;
#72 = APPROVAL_PERSON_ORGANIZATION ( #140, #14, #166 ) ;
#73 = DIRECTION ( 'NONE',  ( -0.0000000000000000000, -0.0000000000000000000, -1.000000000000000000 ) ) ;
#74 = DIRECTION ( 'NONE',  ( -0.0000000000000000000, -0.0000000000000000000, -1.000000000000000000 ) ) ;
#75 = CC_DESIGN_PERSON_AND_ORGANIZATION_ASSIGNMENT ( #42, #33, ( #60 ) ) ;
#76 = DIRECTION ( 'NONE',  ( 0.0000000000000000000, 0.0000000000000000000, 1.000000000000000000 ) ) ;
#77 = FACE_OUTER_BOUND ( 'NONE', #119, .T. ) ;
#78 =( NAMED_UNIT ( * ) SI_UNIT ( $, .STERADIAN. ) SOLID_ANGLE_UNIT ( ) );
#79 = DIRECTION ( 'NONE',  ( 0.0000000000000000000, 0.0000000000000000000, 1.000000000000000000 ) ) ;
#80 = CALENDAR_DATE ( 2017, 14, 6 ) ;
#81 = APPROVAL_STATUS ( 'not_yet_approved' ) ;
#82 = PERSON_AND_ORGANIZATION_ROLE ( 'creator' ) ;
#83 = LOCAL_TIME ( 13, 57, 54.00000000000000000, #25 ) ;
#84 = APPROVAL ( #81, 'UNSPECIFIED' ) ;
#85 = CIRCLE ( 'NONE', #117, 50.00000000000000000 ) ;
#86 = VERTEX_POINT ( 'NONE', #155 ) ;
#87 = FACE_OUTER_BOUND ( 'NONE', #20, .T. ) ;
#88 = DIRECTION ( 'NONE',  ( -0.0000000000000000000, -0.0000000000000000000, -1.000000000000000000 ) ) ;
#89 = EDGE_CURVE ( 'NONE', #15, #86, #85, .T. ) ;
#90 = ADVANCED_FACE ( 'NONE', ( #87 ), #164, .T. ) ;
#91 = CARTESIAN_POINT ( 'NONE',  ( 0.0000000000000000000, 0.0000000000000000000, -0.6250000000000000000 ) ) ;
#92 = PERSON_AND_ORGANIZATION_ROLE ( 'creator' ) ;
#93 = APPROVAL_STATUS ( 'not_yet_approved' ) ;
#94 = ADVANCED_FACE ( 'NONE', ( #77 ), #104, .F. ) ;
#95 = CC_DESIGN_PERSON_AND_ORGANIZATION_ASSIGNMENT ( #106, #92, ( #67 ) ) ;
#96 = PERSON_AND_ORGANIZATION ( #121, #34 ) ;
#97 = CARTESIAN_POINT ( 'NONE',  ( 50.00000000000000000, 6.123233995736766100E-015, -0.6250000000000000000 ) ) ;
#98 = CALENDAR_DATE ( 2017, 14, 6 ) ;
#99 = DIRECTION ( 'NONE',  ( 0.0000000000000000000, 0.0000000000000000000, 1.000000000000000000 ) ) ;
#100 = DESIGN_CONTEXT ( 'detailed design', #69, 'design' ) ;
#101 = APPROVAL_DATE_TIME ( #30, #14 ) ;
#102 = AXIS2_PLACEMENT_3D ( 'NONE', #52, #76, #26 ) ;
#103 = EDGE_LOOP ( 'NONE', ( #124, #35, #131, #21 ) ) ;
#104 = PLANE ( 'NONE',  #39 ) ;
#105 = UNCERTAINTY_MEASURE_WITH_UNIT (LENGTH_MEASURE( 1.000000000000000100E-005 ), #159, 'distance_accuracy_value', 'NONE');
#106 = PERSON_AND_ORGANIZATION ( #121, #34 ) ;
#107 = CC_DESIGN_APPROVAL ( #84, ( #60 ) ) ;
#108 = COORDINATED_UNIVERSAL_TIME_OFFSET ( 5, 0, .BEHIND. ) ;
#109 = ORIENTED_EDGE ( 'NONE', *, *, #89, .T. ) ;
#110 = ADVANCED_FACE ( 'NONE', ( #161 ), #142, .T. ) ;
#111 = CARTESIAN_POINT ( 'NONE',  ( 0.0000000000000000000, 0.0000000000000000000, -0.6250000000000000000 ) ) ;
#112 = CIRCLE ( 'NONE', #32, 50.00000000000000000 ) ;
#113 = APPLICATION_PROTOCOL_DEFINITION ( 'international standard', 'config_control_design', 1994, #17 ) ;
#114 = CC_DESIGN_DATE_AND_TIME_ASSIGNMENT ( #137, #71, ( #60 ) ) ;
#115 = DIRECTION ( 'NONE',  ( -0.0000000000000000000, -0.0000000000000000000, -1.000000000000000000 ) ) ;
#116 = CC_DESIGN_SECURITY_CLASSIFICATION ( #60, ( #163 ) ) ;
#117 = AXIS2_PLACEMENT_3D ( 'NONE', #174, #126, #53 ) ;
#118 = VERTEX_POINT ( 'NONE', #97 ) ;
#119 = EDGE_LOOP ( 'NONE', ( #6, #45 ) ) ;
#120 = APPROVAL_ROLE ( '' ) ;
#121 = PERSON ( 'UNSPECIFIED', 'UNSPECIFIED', 'UNSPECIFIED', ('UNSPECIFIED'), ('UNSPECIFIED'), ('UNSPECIFIED') ) ;
#122 = CC_DESIGN_PERSON_AND_ORGANIZATION_ASSIGNMENT ( #133, #82, ( #163 ) ) ;
#123 = PRODUCT ( 'Web Model 34467_34479', 'Web Model 34467_34479', '', ( #46 ) ) ;
#124 = ORIENTED_EDGE ( 'NONE', *, *, #59, .F. ) ;
#125 = APPROVAL_DATE_TIME ( #168, #84 ) ;
#126 = DIRECTION ( 'NONE',  ( 0.0000000000000000000, 0.0000000000000000000, 1.000000000000000000 ) ) ;
#127 = CALENDAR_DATE ( 2017, 14, 6 ) ;
#128 = AXIS2_PLACEMENT_3D ( 'NONE', #111, #99, #70 ) ;
#129 = CALENDAR_DATE ( 2017, 14, 6 ) ;
#130 = EDGE_CURVE ( 'NONE', #86, #134, #4, .T. ) ;
#131 = ORIENTED_EDGE ( 'NONE', *, *, #130, .T. ) ;
#132 = CC_DESIGN_APPROVAL ( #147, ( #163 ) ) ;
#133 = PERSON_AND_ORGANIZATION ( #121, #34 ) ;
#134 = VERTEX_POINT ( 'NONE', #9 ) ;
#135 = ORIENTED_EDGE ( 'NONE', *, *, #89, .F. ) ;
#136 = FACE_OUTER_BOUND ( 'NONE', #103, .T. ) ;
#137 = DATE_AND_TIME ( #41, #83 ) ;
#138 = PERSON_AND_ORGANIZATION ( #121, #34 ) ;
#139 =( GEOMETRIC_REPRESENTATION_CONTEXT ( 3 ) GLOBAL_UNCERTAINTY_ASSIGNED_CONTEXT ( ( #105 ) ) GLOBAL_UNIT_ASSIGNED_CONTEXT ( ( #159, #153, #78 ) ) REPRESENTATION_CONTEXT ( 'NONE', 'WORKASPACE' ) );
#140 = PERSON_AND_ORGANIZATION ( #121, #34 ) ;
#141 = PRODUCT_RELATED_PRODUCT_CATEGORY ( 'detail', '', ( #123 ) ) ;
#142 = CYLINDRICAL_SURFACE ( 'NONE', #3, 50.00000000000000000 ) ;
#143 = SECURITY_CLASSIFICATION_LEVEL ( 'unclassified' ) ;
#144 = ADVANCED_BREP_SHAPE_REPRESENTATION ( 'Web Model 34467_34479', ( #24, #150 ), #139 ) ;
#145 = APPROVAL_ROLE ( '' ) ;
#146 = EDGE_LOOP ( 'NONE', ( #135, #175, #56, #47 ) ) ;
#147 = APPROVAL ( #57, 'UNSPECIFIED' ) ;
#148 = LOCAL_TIME ( 13, 57, 54.00000000000000000, #108 ) ;
#149 = DIRECTION ( 'NONE',  ( 1.000000000000000000, 0.0000000000000000000, -0.0000000000000000000 ) ) ;
#150 = AXIS2_PLACEMENT_3D ( 'NONE', #19, #10, #36 ) ;
#151 = DIRECTION ( 'NONE',  ( 1.000000000000000000, 0.0000000000000000000, -0.0000000000000000000 ) ) ;
#152 = VECTOR ( 'NONE', #74, 1000.000000000000000 ) ;
#153 =( NAMED_UNIT ( * ) PLANE_ANGLE_UNIT ( ) SI_UNIT ( $, .RADIAN. ) );
#154 = COORDINATED_UNIVERSAL_TIME_OFFSET ( 5, 0, .BEHIND. ) ;
#155 = CARTESIAN_POINT ( 'NONE',  ( -50.00000000000000000, 0.0000000000000000000, 0.6250000000000000000 ) ) ;
#156 = CC_DESIGN_PERSON_AND_ORGANIZATION_ASSIGNMENT ( #63, #54, ( #123 ) ) ;
#157 = PRODUCT_DEFINITION_SHAPE ( 'NONE', 'NONE',  #67 ) ;
#158 = DIRECTION ( 'NONE',  ( 0.0000000000000000000, 0.0000000000000000000, 1.000000000000000000 ) ) ;
#159 =( LENGTH_UNIT ( ) NAMED_UNIT ( * ) SI_UNIT ( .MILLI., .METRE. ) );
#160 = DATE_TIME_ROLE ( 'creation_date' ) ;
#161 = FACE_OUTER_BOUND ( 'NONE', #146, .T. ) ;
#162 = CIRCLE ( 'NONE', #102, 50.00000000000000000 ) ;
#163 = PRODUCT_DEFINITION_FORMATION_WITH_SPECIFIED_SOURCE ( 'ANY', '', #123, .NOT_KNOWN. ) ;
#164 = PLANE ( 'NONE',  #65 ) ;
#165 = LOCAL_TIME ( 13, 57, 54.00000000000000000, #44 ) ;
#166 = APPROVAL_ROLE ( '' ) ;
#167 = DIRECTION ( 'NONE',  ( -1.000000000000000000, 0.0000000000000000000, 0.0000000000000000000 ) ) ;
#168 = DATE_AND_TIME ( #127, #165 ) ;
#169 = DIRECTION ( 'NONE',  ( 1.000000000000000000, 0.0000000000000000000, 0.0000000000000000000 ) ) ;
#170 = EDGE_CURVE ( 'NONE', #118, #134, #66, .T. ) ;
#171 = ADVANCED_FACE ( 'NONE', ( #136 ), #62, .T. ) ;
#172 = VECTOR ( 'NONE', #115, 1000.000000000000000 ) ;
#173 = CC_DESIGN_DATE_AND_TIME_ASSIGNMENT ( #37, #160, ( #67 ) ) ;
#174 = CARTESIAN_POINT ( 'NONE',  ( 0.0000000000000000000, 0.0000000000000000000, 0.6250000000000000000 ) ) ;
#175 = ORIENTED_EDGE ( 'NONE', *, *, #59, .T. ) ;
ENDSEC;
END-ISO-10303-21;
