ISO-10303-21;
HEADER;
FILE_DESCRIPTION (( 'STEP AP203' ),
    '1' );
FILE_NAME ('Web Model 68157_20857.step',
    '2022-03-15T19:20:17',
    ( '' ),
    ( '' ),
    'SwSTEP 2.0',
    'SolidWorks 2021',
    '' );
FILE_SCHEMA (( 'CONFIG_CONTROL_DESIGN' ));
ENDSEC;

DATA;
#1 = VECTOR ( 'NONE', #85, 1000.000000000000000 ) ;
#2 = PERSON_AND_ORGANIZATION ( #123, #20 ) ;
#3 = ORIENTED_EDGE ( 'NONE', *, *, #143, .F. ) ;
#4 = CARTESIAN_POINT ( 'NONE',  ( 0.000000000000000000, 0.000000000000000000, 0.000000000000000000 ) ) ;
#5 = EDGE_CURVE ( 'NONE', #142, #152, #94, .T. ) ;
#6 = DIRECTION ( 'NONE',  ( 0.000000000000000000, 0.000000000000000000, 1.000000000000000000 ) ) ;
#7 = CARTESIAN_POINT ( 'NONE',  ( 0.000000000000000000, 0.000000000000000000, 1.000000000000000000 ) ) ;
#8 = DIRECTION ( 'NONE',  ( 1.000000000000000000, 0.000000000000000000, 0.000000000000000000 ) ) ;
#9 = DIRECTION ( 'NONE',  ( 1.000000000000000000, 0.000000000000000000, 0.000000000000000000 ) ) ;
#10 = APPROVAL ( #158, 'UNSPECIFIED' ) ;
#11 = CC_DESIGN_DATE_AND_TIME_ASSIGNMENT ( #66, #13, ( #23 ) ) ;
#12 = DATE_TIME_ROLE ( 'creation_date' ) ;
#13 = DATE_TIME_ROLE ( 'classification_date' ) ;
#14 = DATE_AND_TIME ( #159, #100 ) ;
#15 = EDGE_LOOP ( 'NONE', ( #73, #162, #96, #140 ) ) ;
#16 = CLOSED_SHELL ( 'NONE', ( #98, #22, #174, #72 ) ) ;
#17 = EDGE_LOOP ( 'NONE', ( #153, #28, #83, #93 ) ) ;
#18 = DIRECTION ( 'NONE',  ( 1.000000000000000000, 0.000000000000000000, -0.000000000000000000 ) ) ;
#19 = CIRCLE ( 'NONE', #52, 6.349999999999999645 ) ;
#20 = ORGANIZATION ( 'UNSPECIFIED', 'UNSPECIFIED', '' ) ;
#21 = FACE_OUTER_BOUND ( 'NONE', #15, .T. ) ;
#22 = ADVANCED_FACE ( 'NONE', ( #59 ), #113, .T. ) ;
#23 = SECURITY_CLASSIFICATION ( '', '', #64 ) ;
#24 = DATE_AND_TIME ( #110, #163 ) ;
#25 = PERSON_AND_ORGANIZATION_ROLE ( 'creator' ) ;
#26 = PERSON_AND_ORGANIZATION ( #123, #20 ) ;
#27 = EDGE_CURVE ( 'NONE', #60, #42, #19, .T. ) ;
#28 = ORIENTED_EDGE ( 'NONE', *, *, #27, .F. ) ;
#29 = CARTESIAN_POINT ( 'NONE',  ( 0.000000000000000000, 0.000000000000000000, 1.000000000000000000 ) ) ;
#30 = CARTESIAN_POINT ( 'NONE',  ( 0.000000000000000000, 0.000000000000000000, 0.000000000000000000 ) ) ;
#31 = PLANE ( 'NONE',  #78 ) ;
#32 = LOCAL_TIME ( 15, 20, 17.00000000000000000, #107 ) ;
#33 = CARTESIAN_POINT ( 'NONE',  ( 0.000000000000000000, 0.000000000000000000, 1.000000000000000000 ) ) ;
#34 = MECHANICAL_CONTEXT ( 'NONE', #103, 'mechanical' ) ;
#35 = CC_DESIGN_DATE_AND_TIME_ASSIGNMENT ( #39, #12, ( #48 ) ) ;
#36 =( NAMED_UNIT ( * ) SI_UNIT ( $, .STERADIAN. ) SOLID_ANGLE_UNIT ( ) );
#37 =( GEOMETRIC_REPRESENTATION_CONTEXT ( 3 ) GLOBAL_UNCERTAINTY_ASSIGNED_CONTEXT ( ( #53 ) ) GLOBAL_UNIT_ASSIGNED_CONTEXT ( ( #62, #169, #36 ) ) REPRESENTATION_CONTEXT ( 'NONE', 'WORKASPACE' ) );
#38 = COORDINATED_UNIVERSAL_TIME_OFFSET ( 5, 0, .BEHIND. ) ;
#39 = DATE_AND_TIME ( #120, #82 ) ;
#40 = PERSON_AND_ORGANIZATION ( #123, #20 ) ;
#41 = CC_DESIGN_PERSON_AND_ORGANIZATION_ASSIGNMENT ( #119, #157, ( #54 ) ) ;
#42 = VERTEX_POINT ( 'NONE', #101 ) ;
#43 = APPROVAL_PERSON_ORGANIZATION ( #26, #139, #175 ) ;
#44 = ORIENTED_EDGE ( 'NONE', *, *, #27, .T. ) ;
#45 = DIRECTION ( 'NONE',  ( 0.000000000000000000, 0.000000000000000000, 1.000000000000000000 ) ) ;
#46 = DIRECTION ( 'NONE',  ( 1.000000000000000000, 0.000000000000000000, 0.000000000000000000 ) ) ;
#47 = CARTESIAN_POINT ( 'NONE',  ( 6.349999999999999645, 7.776507174585692163E-16, 0.000000000000000000 ) ) ;
#48 = PRODUCT_DEFINITION ( 'UNKNOWN', '', #171, #92 ) ;
#49 = LINE ( 'NONE', #50, #1 ) ;
#50 = CARTESIAN_POINT ( 'NONE',  ( -6.349999999999999645, 0.000000000000000000, 1.000000000000000000 ) ) ;
#51 = APPROVAL_DATE_TIME ( #24, #139 ) ;
#52 = AXIS2_PLACEMENT_3D ( 'NONE', #29, #45, #46 ) ;
#53 = UNCERTAINTY_MEASURE_WITH_UNIT (LENGTH_MEASURE( 1.000000000000000082E-05 ), #62, 'distance_accuracy_value', 'NONE');
#54 = PRODUCT ( 'Web Model 68157_20857', 'Web Model 68157_20857', '', ( #34 ) ) ;
#55 = COORDINATED_UNIVERSAL_TIME_OFFSET ( 5, 0, .BEHIND. ) ;
#56 = PERSON_AND_ORGANIZATION ( #123, #20 ) ;
#57 = LOCAL_TIME ( 15, 20, 17.00000000000000000, #151 ) ;
#58 = PERSON_AND_ORGANIZATION ( #123, #20 ) ;
#59 = FACE_OUTER_BOUND ( 'NONE', #17, .T. ) ;
#60 = VERTEX_POINT ( 'NONE', #172 ) ;
#61 = AXIS2_PLACEMENT_3D ( 'NONE', #165, #164, #154 ) ;
#62 =( LENGTH_UNIT ( ) NAMED_UNIT ( * ) SI_UNIT ( .MILLI., .METRE. ) );
#63 = DIRECTION ( 'NONE',  ( 1.000000000000000000, 0.000000000000000000, 0.000000000000000000 ) ) ;
#64 = SECURITY_CLASSIFICATION_LEVEL ( 'unclassified' ) ;
#65 = APPLICATION_CONTEXT ( 'configuration controlled 3d designs of mechanical parts and assemblies' ) ;
#66 = DATE_AND_TIME ( #91, #57 ) ;
#67 = APPROVAL_PERSON_ORGANIZATION ( #56, #111, #79 ) ;
#68 = APPROVAL_DATE_TIME ( #109, #111 ) ;
#69 = CC_DESIGN_PERSON_AND_ORGANIZATION_ASSIGNMENT ( #122, #25, ( #48 ) ) ;
#70 = APPROVAL_STATUS ( 'not_yet_approved' ) ;
#71 = AXIS2_PLACEMENT_3D ( 'NONE', #30, #144, #9 ) ;
#72 = ADVANCED_FACE ( 'NONE', ( #77 ), #31, .F. ) ;
#73 = ORIENTED_EDGE ( 'NONE', *, *, #106, .F. ) ;
#74 = APPROVAL_ROLE ( '' ) ;
#75 = AXIS2_PLACEMENT_3D ( 'NONE', #170, #104, #63 ) ;
#76 = DIRECTION ( 'NONE',  ( -0.000000000000000000, -0.000000000000000000, -1.000000000000000000 ) ) ;
#77 = FACE_OUTER_BOUND ( 'NONE', #114, .T. ) ;
#78 = AXIS2_PLACEMENT_3D ( 'NONE', #84, #156, #86 ) ;
#79 = APPROVAL_ROLE ( '' ) ;
#80 = EDGE_CURVE ( 'NONE', #42, #142, #132, .T. ) ;
#81 = APPROVAL_STATUS ( 'not_yet_approved' ) ;
#82 = LOCAL_TIME ( 15, 20, 17.00000000000000000, #138 ) ;
#83 = ORIENTED_EDGE ( 'NONE', *, *, #125, .T. ) ;
#84 = CARTESIAN_POINT ( 'NONE',  ( 0.000000000000000000, 0.000000000000000000, 0.000000000000000000 ) ) ;
#85 = DIRECTION ( 'NONE',  ( -0.000000000000000000, -0.000000000000000000, -1.000000000000000000 ) ) ;
#86 = DIRECTION ( 'NONE',  ( 1.000000000000000000, 0.000000000000000000, -0.000000000000000000 ) ) ;
#87 = APPLICATION_PROTOCOL_DEFINITION ( 'international standard', 'config_control_design', 1994, #65 ) ;
#88 = CC_DESIGN_APPROVAL ( #111, ( #171 ) ) ;
#89 = SHAPE_DEFINITION_REPRESENTATION ( #108, #141 ) ;
#90 = APPROVAL_DATE_TIME ( #14, #10 ) ;
#91 = CALENDAR_DATE ( 2022, 15, 3 ) ;
#92 = DESIGN_CONTEXT ( 'detailed design', #65, 'design' ) ;
#93 = ORIENTED_EDGE ( 'NONE', *, *, #143, .T. ) ;
#94 = CIRCLE ( 'NONE', #147, 6.349999999999999645 ) ;
#95 = DIRECTION ( 'NONE',  ( 1.000000000000000000, 0.000000000000000000, 0.000000000000000000 ) ) ;
#96 = ORIENTED_EDGE ( 'NONE', *, *, #5, .T. ) ;
#97 = MANIFOLD_SOLID_BREP ( 'Boss-Extrude1', #16 ) ;
#98 = ADVANCED_FACE ( 'NONE', ( #21 ), #134, .T. ) ;
#99 = CC_DESIGN_PERSON_AND_ORGANIZATION_ASSIGNMENT ( #40, #149, ( #171 ) ) ;
#100 = LOCAL_TIME ( 15, 20, 17.00000000000000000, #55 ) ;
#101 = CARTESIAN_POINT ( 'NONE',  ( 6.349999999999999645, 7.776507174585692163E-16, 1.000000000000000000 ) ) ;
#102 = DIRECTION ( 'NONE',  ( -1.000000000000000000, 0.000000000000000000, 0.000000000000000000 ) ) ;
#103 = APPLICATION_CONTEXT ( 'configuration controlled 3d designs of mechanical parts and assemblies' ) ;
#104 = DIRECTION ( 'NONE',  ( 0.000000000000000000, 0.000000000000000000, 1.000000000000000000 ) ) ;
#105 = APPLICATION_PROTOCOL_DEFINITION ( 'international standard', 'config_control_design', 1994, #103 ) ;
#106 = EDGE_CURVE ( 'NONE', #42, #60, #117, .T. ) ;
#107 = COORDINATED_UNIVERSAL_TIME_OFFSET ( 5, 0, .BEHIND. ) ;
#108 = PRODUCT_DEFINITION_SHAPE ( 'NONE', 'NONE',  #48 ) ;
#109 = DATE_AND_TIME ( #160, #32 ) ;
#110 = CALENDAR_DATE ( 2022, 15, 3 ) ;
#111 = APPROVAL ( #70, 'UNSPECIFIED' ) ;
#112 = DIRECTION ( 'NONE',  ( 0.000000000000000000, 0.000000000000000000, 1.000000000000000000 ) ) ;
#113 = CYLINDRICAL_SURFACE ( 'NONE', #61, 6.349999999999999645 ) ;
#114 = EDGE_LOOP ( 'NONE', ( #3, #127 ) ) ;
#115 = FACE_OUTER_BOUND ( 'NONE', #128, .T. ) ;
#116 = PLANE ( 'NONE',  #166 ) ;
#117 = CIRCLE ( 'NONE', #155, 6.349999999999999645 ) ;
#118 = CC_DESIGN_PERSON_AND_ORGANIZATION_ASSIGNMENT ( #2, #136, ( #23 ) ) ;
#119 = PERSON_AND_ORGANIZATION ( #123, #20 ) ;
#120 = CALENDAR_DATE ( 2022, 15, 3 ) ;
#121 = AXIS2_PLACEMENT_3D ( 'NONE', #33, #133, #102 ) ;
#122 = PERSON_AND_ORGANIZATION ( #123, #20 ) ;
#123 = PERSON ( 'UNSPECIFIED', 'UNSPECIFIED', 'UNSPECIFIED', ('UNSPECIFIED'), ('UNSPECIFIED'), ('UNSPECIFIED') ) ;
#124 = CC_DESIGN_SECURITY_CLASSIFICATION ( #23, ( #171 ) ) ;
#125 = EDGE_CURVE ( 'NONE', #60, #152, #49, .T. ) ;
#126 = CC_DESIGN_PERSON_AND_ORGANIZATION_ASSIGNMENT ( #58, #135, ( #171 ) ) ;
#127 = ORIENTED_EDGE ( 'NONE', *, *, #5, .F. ) ;
#128 = EDGE_LOOP ( 'NONE', ( #44, #129 ) ) ;
#129 = ORIENTED_EDGE ( 'NONE', *, *, #106, .T. ) ;
#130 = APPROVAL_PERSON_ORGANIZATION ( #148, #10, #74 ) ;
#131 = CARTESIAN_POINT ( 'NONE',  ( 0.000000000000000000, 0.000000000000000000, 1.000000000000000000 ) ) ;
#132 = LINE ( 'NONE', #146, #150 ) ;
#133 = DIRECTION ( 'NONE',  ( -0.000000000000000000, -0.000000000000000000, -1.000000000000000000 ) ) ;
#134 = CYLINDRICAL_SURFACE ( 'NONE', #121, 6.349999999999999645 ) ;
#135 = PERSON_AND_ORGANIZATION_ROLE ( 'creator' ) ;
#136 = PERSON_AND_ORGANIZATION_ROLE ( 'classification_officer' ) ;
#137 = CIRCLE ( 'NONE', #71, 6.349999999999999645 ) ;
#138 = COORDINATED_UNIVERSAL_TIME_OFFSET ( 5, 0, .BEHIND. ) ;
#139 = APPROVAL ( #81, 'UNSPECIFIED' ) ;
#140 = ORIENTED_EDGE ( 'NONE', *, *, #125, .F. ) ;
#141 = ADVANCED_BREP_SHAPE_REPRESENTATION ( 'Web Model 68157_20857', ( #97, #75 ), #37 ) ;
#142 = VERTEX_POINT ( 'NONE', #47 ) ;
#143 = EDGE_CURVE ( 'NONE', #152, #142, #137, .T. ) ;
#144 = DIRECTION ( 'NONE',  ( 0.000000000000000000, 0.000000000000000000, 1.000000000000000000 ) ) ;
#145 = PRODUCT_RELATED_PRODUCT_CATEGORY ( 'detail', '', ( #54 ) ) ;
#146 = CARTESIAN_POINT ( 'NONE',  ( 6.349999999999999645, 7.776507174585692163E-16, 1.000000000000000000 ) ) ;
#147 = AXIS2_PLACEMENT_3D ( 'NONE', #4, #112, #95 ) ;
#148 = PERSON_AND_ORGANIZATION ( #123, #20 ) ;
#149 = PERSON_AND_ORGANIZATION_ROLE ( 'design_supplier' ) ;
#150 = VECTOR ( 'NONE', #76, 1000.000000000000000 ) ;
#151 = COORDINATED_UNIVERSAL_TIME_OFFSET ( 5, 0, .BEHIND. ) ;
#152 = VERTEX_POINT ( 'NONE', #173 ) ;
#153 = ORIENTED_EDGE ( 'NONE', *, *, #80, .F. ) ;
#154 = DIRECTION ( 'NONE',  ( -1.000000000000000000, 0.000000000000000000, 0.000000000000000000 ) ) ;
#155 = AXIS2_PLACEMENT_3D ( 'NONE', #131, #6, #8 ) ;
#156 = DIRECTION ( 'NONE',  ( 0.000000000000000000, 0.000000000000000000, 1.000000000000000000 ) ) ;
#157 = PERSON_AND_ORGANIZATION_ROLE ( 'design_owner' ) ;
#158 = APPROVAL_STATUS ( 'not_yet_approved' ) ;
#159 = CALENDAR_DATE ( 2022, 15, 3 ) ;
#160 = CALENDAR_DATE ( 2022, 15, 3 ) ;
#161 = CC_DESIGN_APPROVAL ( #10, ( #48 ) ) ;
#162 = ORIENTED_EDGE ( 'NONE', *, *, #80, .T. ) ;
#163 = LOCAL_TIME ( 15, 20, 17.00000000000000000, #38 ) ;
#164 = DIRECTION ( 'NONE',  ( -0.000000000000000000, -0.000000000000000000, -1.000000000000000000 ) ) ;
#165 = CARTESIAN_POINT ( 'NONE',  ( 0.000000000000000000, 0.000000000000000000, 1.000000000000000000 ) ) ;
#166 = AXIS2_PLACEMENT_3D ( 'NONE', #7, #168, #18 ) ;
#167 = CC_DESIGN_APPROVAL ( #139, ( #23 ) ) ;
#168 = DIRECTION ( 'NONE',  ( 0.000000000000000000, 0.000000000000000000, 1.000000000000000000 ) ) ;
#169 =( NAMED_UNIT ( * ) PLANE_ANGLE_UNIT ( ) SI_UNIT ( $, .RADIAN. ) );
#170 = CARTESIAN_POINT ( 'NONE',  ( 0.000000000000000000, 0.000000000000000000, 0.000000000000000000 ) ) ;
#171 = PRODUCT_DEFINITION_FORMATION_WITH_SPECIFIED_SOURCE ( 'ANY', '', #54, .NOT_KNOWN. ) ;
#172 = CARTESIAN_POINT ( 'NONE',  ( -6.349999999999999645, 0.000000000000000000, 1.000000000000000000 ) ) ;
#173 = CARTESIAN_POINT ( 'NONE',  ( -6.349999999999999645, 0.000000000000000000, 0.000000000000000000 ) ) ;
#174 = ADVANCED_FACE ( 'NONE', ( #115 ), #116, .T. ) ;
#175 = APPROVAL_ROLE ( '' ) ;
ENDSEC;
END-ISO-10303-21;
