ISO-10303-21;
HEADER;
FILE_DESCRIPTION (( 'STEP AP203' ),
    '1' );
FILE_NAME ('Web Model 43368_21006.step',
    '2022-03-16T14:24:35',
    ( '' ),
    ( '' ),
    'SwSTEP 2.0',
    'SolidWorks 2021',
    '' );
FILE_SCHEMA (( 'CONFIG_CONTROL_DESIGN' ));
ENDSEC;

DATA;
#1 =( NAMED_UNIT ( * ) PLANE_ANGLE_UNIT ( ) SI_UNIT ( $, .RADIAN. ) );
#2 = PERSON_AND_ORGANIZATION ( #158, #159 ) ;
#3 = ORIENTED_EDGE ( 'NONE', *, *, #78, .T. ) ;
#4 = ORIENTED_EDGE ( 'NONE', *, *, #101, .F. ) ;
#5 = DIRECTION ( 'NONE',  ( -0.000000000000000000, -0.000000000000000000, -1.000000000000000000 ) ) ;
#6 = ORIENTED_EDGE ( 'NONE', *, *, #78, .F. ) ;
#7 = DATE_AND_TIME ( #111, #129 ) ;
#8 = DIRECTION ( 'NONE',  ( 0.000000000000000000, 0.000000000000000000, 1.000000000000000000 ) ) ;
#9 = CC_DESIGN_APPROVAL ( #115, ( #149 ) ) ;
#10 = SECURITY_CLASSIFICATION_LEVEL ( 'unclassified' ) ;
#11 = DIRECTION ( 'NONE',  ( 0.000000000000000000, 0.000000000000000000, 1.000000000000000000 ) ) ;
#12 = CARTESIAN_POINT ( 'NONE',  ( 10.00000000000000000, 1.224646799147353256E-15, 1.000000000000000000 ) ) ;
#13 = LOCAL_TIME ( 10, 24, 35.00000000000000000, #76 ) ;
#14 = ADVANCED_FACE ( 'NONE', ( #136 ), #45, .T. ) ;
#15 = APPLICATION_PROTOCOL_DEFINITION ( 'international standard', 'config_control_design', 1994, #145 ) ;
#16 = ADVANCED_FACE ( 'NONE', ( #148 ), #82, .T. ) ;
#17 = DIRECTION ( 'NONE',  ( 0.000000000000000000, 0.000000000000000000, 1.000000000000000000 ) ) ;
#18 = ADVANCED_BREP_SHAPE_REPRESENTATION ( 'Web Model 43368_21006', ( #55, #137 ), #157 ) ;
#19 = AXIS2_PLACEMENT_3D ( 'NONE', #59, #5, #163 ) ;
#20 = CARTESIAN_POINT ( 'NONE',  ( 0.000000000000000000, 0.000000000000000000, 1.000000000000000000 ) ) ;
#21 = VERTEX_POINT ( 'NONE', #150 ) ;
#22 = COORDINATED_UNIVERSAL_TIME_OFFSET ( 5, 0, .BEHIND. ) ;
#23 = DIRECTION ( 'NONE',  ( -0.000000000000000000, -0.000000000000000000, -1.000000000000000000 ) ) ;
#24 = CALENDAR_DATE ( 2022, 16, 3 ) ;
#25 = DIRECTION ( 'NONE',  ( -0.000000000000000000, -0.000000000000000000, -1.000000000000000000 ) ) ;
#26 = CARTESIAN_POINT ( 'NONE',  ( 0.000000000000000000, 0.000000000000000000, 0.000000000000000000 ) ) ;
#27 = DATE_AND_TIME ( #113, #120 ) ;
#28 = CARTESIAN_POINT ( 'NONE',  ( 0.000000000000000000, 0.000000000000000000, 0.000000000000000000 ) ) ;
#29 = FACE_OUTER_BOUND ( 'NONE', #147, .T. ) ;
#30 = APPROVAL_PERSON_ORGANIZATION ( #94, #115, #138 ) ;
#31 = EDGE_LOOP ( 'NONE', ( #80, #121, #48, #6 ) ) ;
#32 = CC_DESIGN_PERSON_AND_ORGANIZATION_ASSIGNMENT ( #100, #156, ( #53 ) ) ;
#33 = SECURITY_CLASSIFICATION ( '', '', #10 ) ;
#34 = VERTEX_POINT ( 'NONE', #81 ) ;
#35 = FACE_OUTER_BOUND ( 'NONE', #31, .T. ) ;
#36 = CALENDAR_DATE ( 2022, 16, 3 ) ;
#37 = DIRECTION ( 'NONE',  ( 1.000000000000000000, 0.000000000000000000, 0.000000000000000000 ) ) ;
#38 = PERSON_AND_ORGANIZATION_ROLE ( 'classification_officer' ) ;
#39 = APPROVAL_DATE_TIME ( #108, #43 ) ;
#40 = DIRECTION ( 'NONE',  ( 0.000000000000000000, 0.000000000000000000, 1.000000000000000000 ) ) ;
#41 = APPROVAL_STATUS ( 'not_yet_approved' ) ;
#42 = APPLICATION_PROTOCOL_DEFINITION ( 'international standard', 'config_control_design', 1994, #106 ) ;
#43 = APPROVAL ( #170, 'UNSPECIFIED' ) ;
#44 = ADVANCED_FACE ( 'NONE', ( #35 ), #107, .T. ) ;
#45 = CYLINDRICAL_SURFACE ( 'NONE', #19, 10.00000000000000000 ) ;
#46 = ORIENTED_EDGE ( 'NONE', *, *, #105, .T. ) ;
#47 = DIRECTION ( 'NONE',  ( 1.000000000000000000, 0.000000000000000000, -0.000000000000000000 ) ) ;
#48 = ORIENTED_EDGE ( 'NONE', *, *, #153, .T. ) ;
#49 = PERSON_AND_ORGANIZATION_ROLE ( 'creator' ) ;
#50 = CARTESIAN_POINT ( 'NONE',  ( 0.000000000000000000, 0.000000000000000000, 1.000000000000000000 ) ) ;
#51 = APPROVAL_ROLE ( '' ) ;
#52 = PERSON_AND_ORGANIZATION ( #158, #159 ) ;
#53 = PRODUCT_DEFINITION_FORMATION_WITH_SPECIFIED_SOURCE ( 'ANY', '', #93, .NOT_KNOWN. ) ;
#54 = LOCAL_TIME ( 10, 24, 35.00000000000000000, #84 ) ;
#55 = MANIFOLD_SOLID_BREP ( 'Boss-Extrude1', #135 ) ;
#56 =( NAMED_UNIT ( * ) SI_UNIT ( $, .STERADIAN. ) SOLID_ANGLE_UNIT ( ) );
#57 = VERTEX_POINT ( 'NONE', #125 ) ;
#58 = AXIS2_PLACEMENT_3D ( 'NONE', #28, #68, #103 ) ;
#59 = CARTESIAN_POINT ( 'NONE',  ( 0.000000000000000000, 0.000000000000000000, 1.000000000000000000 ) ) ;
#60 = DIRECTION ( 'NONE',  ( 0.000000000000000000, 0.000000000000000000, 1.000000000000000000 ) ) ;
#61 = COORDINATED_UNIVERSAL_TIME_OFFSET ( 5, 0, .BEHIND. ) ;
#62 = ORIENTED_EDGE ( 'NONE', *, *, #63, .F. ) ;
#63 = EDGE_CURVE ( 'NONE', #57, #95, #144, .T. ) ;
#64 = DATE_AND_TIME ( #36, #162 ) ;
#65 = AXIS2_PLACEMENT_3D ( 'NONE', #175, #40, #37 ) ;
#66 = DATE_AND_TIME ( #24, #13 ) ;
#67 = COORDINATED_UNIVERSAL_TIME_OFFSET ( 5, 0, .BEHIND. ) ;
#68 = DIRECTION ( 'NONE',  ( 0.000000000000000000, 0.000000000000000000, 1.000000000000000000 ) ) ;
#69 = APPROVAL_PERSON_ORGANIZATION ( #52, #160, #51 ) ;
#70 = CIRCLE ( 'NONE', #134, 10.00000000000000000 ) ;
#71 = PRODUCT_DEFINITION_SHAPE ( 'NONE', 'NONE',  #149 ) ;
#72 = PRODUCT_RELATED_PRODUCT_CATEGORY ( 'detail', '', ( #93 ) ) ;
#73 = ORIENTED_EDGE ( 'NONE', *, *, #63, .T. ) ;
#74 = LINE ( 'NONE', #130, #92 ) ;
#75 = DATE_TIME_ROLE ( 'classification_date' ) ;
#76 = COORDINATED_UNIVERSAL_TIME_OFFSET ( 5, 0, .BEHIND. ) ;
#77 = DIRECTION ( 'NONE',  ( 1.000000000000000000, 0.000000000000000000, 0.000000000000000000 ) ) ;
#78 = EDGE_CURVE ( 'NONE', #34, #57, #74, .T. ) ;
#79 = AXIS2_PLACEMENT_3D ( 'NONE', #139, #143, #77 ) ;
#80 = ORIENTED_EDGE ( 'NONE', *, *, #105, .F. ) ;
#81 = CARTESIAN_POINT ( 'NONE',  ( -10.00000000000000000, 0.000000000000000000, 1.000000000000000000 ) ) ;
#82 = PLANE ( 'NONE',  #91 ) ;
#83 = CC_DESIGN_APPROVAL ( #160, ( #53 ) ) ;
#84 = COORDINATED_UNIVERSAL_TIME_OFFSET ( 5, 0, .BEHIND. ) ;
#85 = CALENDAR_DATE ( 2022, 16, 3 ) ;
#86 = CC_DESIGN_SECURITY_CLASSIFICATION ( #33, ( #53 ) ) ;
#87 = CC_DESIGN_DATE_AND_TIME_ASSIGNMENT ( #66, #75, ( #33 ) ) ;
#88 = APPROVAL_DATE_TIME ( #27, #115 ) ;
#89 = MECHANICAL_CONTEXT ( 'NONE', #145, 'mechanical' ) ;
#90 = AXIS2_PLACEMENT_3D ( 'NONE', #26, #11, #174 ) ;
#91 = AXIS2_PLACEMENT_3D ( 'NONE', #20, #60, #47 ) ;
#92 = VECTOR ( 'NONE', #23, 1000.000000000000000 ) ;
#93 = PRODUCT ( 'Web Model 43368_21006', 'Web Model 43368_21006', '', ( #89 ) ) ;
#94 = PERSON_AND_ORGANIZATION ( #158, #159 ) ;
#95 = VERTEX_POINT ( 'NONE', #123 ) ;
#96 = APPROVAL_PERSON_ORGANIZATION ( #110, #43, #112 ) ;
#97 = APPROVAL_STATUS ( 'not_yet_approved' ) ;
#98 = DIRECTION ( 'NONE',  ( -0.000000000000000000, -0.000000000000000000, -1.000000000000000000 ) ) ;
#99 = APPROVAL_DATE_TIME ( #64, #160 ) ;
#100 = PERSON_AND_ORGANIZATION ( #158, #159 ) ;
#101 = EDGE_CURVE ( 'NONE', #34, #21, #70, .T. ) ;
#102 = PERSON_AND_ORGANIZATION_ROLE ( 'design_owner' ) ;
#103 = DIRECTION ( 'NONE',  ( 1.000000000000000000, 0.000000000000000000, -0.000000000000000000 ) ) ;
#104 = CC_DESIGN_APPROVAL ( #43, ( #33 ) ) ;
#105 = EDGE_CURVE ( 'NONE', #21, #34, #169, .T. ) ;
#106 = APPLICATION_CONTEXT ( 'configuration controlled 3d designs of mechanical parts and assemblies' ) ;
#107 = CYLINDRICAL_SURFACE ( 'NONE', #140, 10.00000000000000000 ) ;
#108 = DATE_AND_TIME ( #85, #54 ) ;
#109 = ORIENTED_EDGE ( 'NONE', *, *, #132, .F. ) ;
#110 = PERSON_AND_ORGANIZATION ( #158, #159 ) ;
#111 = CALENDAR_DATE ( 2022, 16, 3 ) ;
#112 = APPROVAL_ROLE ( '' ) ;
#113 = CALENDAR_DATE ( 2022, 16, 3 ) ;
#114 = VECTOR ( 'NONE', #98, 1000.000000000000000 ) ;
#115 = APPROVAL ( #41, 'UNSPECIFIED' ) ;
#116 =( LENGTH_UNIT ( ) NAMED_UNIT ( * ) SI_UNIT ( .MILLI., .METRE. ) );
#117 = CC_DESIGN_PERSON_AND_ORGANIZATION_ASSIGNMENT ( #122, #172, ( #149 ) ) ;
#118 = DESIGN_CONTEXT ( 'detailed design', #106, 'design' ) ;
#119 = ORIENTED_EDGE ( 'NONE', *, *, #101, .T. ) ;
#120 = LOCAL_TIME ( 10, 24, 35.00000000000000000, #67 ) ;
#121 = ORIENTED_EDGE ( 'NONE', *, *, #132, .T. ) ;
#122 = PERSON_AND_ORGANIZATION ( #158, #159 ) ;
#123 = CARTESIAN_POINT ( 'NONE',  ( 10.00000000000000000, 1.224646799147353256E-15, 0.000000000000000000 ) ) ;
#124 = CC_DESIGN_PERSON_AND_ORGANIZATION_ASSIGNMENT ( #126, #38, ( #33 ) ) ;
#125 = CARTESIAN_POINT ( 'NONE',  ( -10.00000000000000000, 0.000000000000000000, 0.000000000000000000 ) ) ;
#126 = PERSON_AND_ORGANIZATION ( #158, #159 ) ;
#127 = SHAPE_DEFINITION_REPRESENTATION ( #71, #18 ) ;
#128 = DIRECTION ( 'NONE',  ( -1.000000000000000000, 0.000000000000000000, 0.000000000000000000 ) ) ;
#129 = LOCAL_TIME ( 10, 24, 35.00000000000000000, #22 ) ;
#130 = CARTESIAN_POINT ( 'NONE',  ( -10.00000000000000000, 0.000000000000000000, 1.000000000000000000 ) ) ;
#131 = CARTESIAN_POINT ( 'NONE',  ( 0.000000000000000000, 0.000000000000000000, 0.000000000000000000 ) ) ;
#132 = EDGE_CURVE ( 'NONE', #21, #95, #171, .T. ) ;
#133 = CC_DESIGN_PERSON_AND_ORGANIZATION_ASSIGNMENT ( #155, #49, ( #53 ) ) ;
#134 = AXIS2_PLACEMENT_3D ( 'NONE', #50, #8, #141 ) ;
#135 = CLOSED_SHELL ( 'NONE', ( #44, #14, #16, #166 ) ) ;
#136 = FACE_OUTER_BOUND ( 'NONE', #164, .T. ) ;
#137 = AXIS2_PLACEMENT_3D ( 'NONE', #131, #17, #161 ) ;
#138 = APPROVAL_ROLE ( '' ) ;
#139 = CARTESIAN_POINT ( 'NONE',  ( 0.000000000000000000, 0.000000000000000000, 0.000000000000000000 ) ) ;
#140 = AXIS2_PLACEMENT_3D ( 'NONE', #167, #25, #128 ) ;
#141 = DIRECTION ( 'NONE',  ( 1.000000000000000000, 0.000000000000000000, 0.000000000000000000 ) ) ;
#142 = PLANE ( 'NONE',  #58 ) ;
#143 = DIRECTION ( 'NONE',  ( 0.000000000000000000, 0.000000000000000000, 1.000000000000000000 ) ) ;
#144 = CIRCLE ( 'NONE', #79, 10.00000000000000000 ) ;
#145 = APPLICATION_CONTEXT ( 'configuration controlled 3d designs of mechanical parts and assemblies' ) ;
#146 = CC_DESIGN_PERSON_AND_ORGANIZATION_ASSIGNMENT ( #2, #102, ( #93 ) ) ;
#147 = EDGE_LOOP ( 'NONE', ( #62, #165 ) ) ;
#148 = FACE_OUTER_BOUND ( 'NONE', #151, .T. ) ;
#149 = PRODUCT_DEFINITION ( 'UNKNOWN', '', #53, #118 ) ;
#150 = CARTESIAN_POINT ( 'NONE',  ( 10.00000000000000000, 1.224646799147353256E-15, 1.000000000000000000 ) ) ;
#151 = EDGE_LOOP ( 'NONE', ( #119, #46 ) ) ;
#152 = UNCERTAINTY_MEASURE_WITH_UNIT (LENGTH_MEASURE( 1.000000000000000082E-05 ), #116, 'distance_accuracy_value', 'NONE');
#153 = EDGE_CURVE ( 'NONE', #95, #57, #154, .T. ) ;
#154 = CIRCLE ( 'NONE', #90, 10.00000000000000000 ) ;
#155 = PERSON_AND_ORGANIZATION ( #158, #159 ) ;
#156 = PERSON_AND_ORGANIZATION_ROLE ( 'design_supplier' ) ;
#157 =( GEOMETRIC_REPRESENTATION_CONTEXT ( 3 ) GLOBAL_UNCERTAINTY_ASSIGNED_CONTEXT ( ( #152 ) ) GLOBAL_UNIT_ASSIGNED_CONTEXT ( ( #116, #1, #56 ) ) REPRESENTATION_CONTEXT ( 'NONE', 'WORKASPACE' ) );
#158 = PERSON ( 'UNSPECIFIED', 'UNSPECIFIED', 'UNSPECIFIED', ('UNSPECIFIED'), ('UNSPECIFIED'), ('UNSPECIFIED') ) ;
#159 = ORGANIZATION ( 'UNSPECIFIED', 'UNSPECIFIED', '' ) ;
#160 = APPROVAL ( #97, 'UNSPECIFIED' ) ;
#161 = DIRECTION ( 'NONE',  ( 1.000000000000000000, 0.000000000000000000, 0.000000000000000000 ) ) ;
#162 = LOCAL_TIME ( 10, 24, 35.00000000000000000, #61 ) ;
#163 = DIRECTION ( 'NONE',  ( -1.000000000000000000, 0.000000000000000000, 0.000000000000000000 ) ) ;
#164 = EDGE_LOOP ( 'NONE', ( #109, #4, #3, #73 ) ) ;
#165 = ORIENTED_EDGE ( 'NONE', *, *, #153, .F. ) ;
#166 = ADVANCED_FACE ( 'NONE', ( #29 ), #142, .F. ) ;
#167 = CARTESIAN_POINT ( 'NONE',  ( 0.000000000000000000, 0.000000000000000000, 1.000000000000000000 ) ) ;
#168 = CC_DESIGN_DATE_AND_TIME_ASSIGNMENT ( #7, #173, ( #149 ) ) ;
#169 = CIRCLE ( 'NONE', #65, 10.00000000000000000 ) ;
#170 = APPROVAL_STATUS ( 'not_yet_approved' ) ;
#171 = LINE ( 'NONE', #12, #114 ) ;
#172 = PERSON_AND_ORGANIZATION_ROLE ( 'creator' ) ;
#173 = DATE_TIME_ROLE ( 'creation_date' ) ;
#174 = DIRECTION ( 'NONE',  ( 1.000000000000000000, 0.000000000000000000, 0.000000000000000000 ) ) ;
#175 = CARTESIAN_POINT ( 'NONE',  ( 0.000000000000000000, 0.000000000000000000, 1.000000000000000000 ) ) ;
ENDSEC;
END-ISO-10303-21;
