ISO-10303-21;
HEADER;
FILE_DESCRIPTION (( 'STEP AP203' ),
    '1' );
FILE_NAME ('Web Model 49583_49583.step',
    '2019-04-23T14:13:31',
    ( '' ),
    ( '' ),
    'SwSTEP 2.0',
    'SolidWorks 2018',
    '' );
FILE_SCHEMA (( 'CONFIG_CONTROL_DESIGN' ));
ENDSEC;

DATA;
#1 = LINE ( 'NONE', #147, #44 ) ;
#2 = CARTESIAN_POINT ( 'NONE',  ( 25.00000000000000000, 25.00000000000000000, 0.0000000000000000000 ) ) ;
#3 = PERSON_AND_ORGANIZATION ( #223, #188 ) ;
#4 = ORIENTED_EDGE ( 'NONE', *, *, #217, .T. ) ;
#5 = APPROVAL_STATUS ( 'not_yet_approved' ) ;
#6 = PERSON_AND_ORGANIZATION_ROLE ( 'creator' ) ;
#7 = PLANE ( 'NONE',  #23 ) ;
#8 = APPROVAL_PERSON_ORGANIZATION ( #155, #77, #215 ) ;
#9 = LINE ( 'NONE', #84, #222 ) ;
#10 = EDGE_CURVE ( 'NONE', #114, #177, #9, .T. ) ;
#11 = DIRECTION ( 'NONE',  ( 1.000000000000000000, 0.0000000000000000000, 0.0000000000000000000 ) ) ;
#12 = DIRECTION ( 'NONE',  ( 0.0000000000000000000, 0.0000000000000000000, -1.000000000000000000 ) ) ;
#13 = APPROVAL ( #216, 'UNSPECIFIED' ) ;
#14 = DATE_AND_TIME ( #107, #132 ) ;
#15 = SHAPE_DEFINITION_REPRESENTATION ( #24, #65 ) ;
#16 = ORIENTED_EDGE ( 'NONE', *, *, #10, .T. ) ;
#17 = DIRECTION ( 'NONE',  ( 1.000000000000000000, 0.0000000000000000000, 0.0000000000000000000 ) ) ;
#18 = CC_DESIGN_PERSON_AND_ORGANIZATION_ASSIGNMENT ( #174, #140, ( #139 ) ) ;
#19 = ORIENTED_EDGE ( 'NONE', *, *, #237, .F. ) ;
#20 = DIRECTION ( 'NONE',  ( -1.000000000000000000, 0.0000000000000000000, 0.0000000000000000000 ) ) ;
#21 = MANIFOLD_SOLID_BREP ( 'NONE', #68 ) ;
#22 = DIRECTION ( 'NONE',  ( 0.0000000000000000000, 0.0000000000000000000, -1.000000000000000000 ) ) ;
#23 = AXIS2_PLACEMENT_3D ( 'NONE', #81, #48, #198 ) ;
#24 = PRODUCT_DEFINITION_SHAPE ( 'NONE', 'NONE',  #87 ) ;
#25 = APPLICATION_PROTOCOL_DEFINITION ( 'international standard', 'config_control_design', 1994, #136 ) ;
#26 = ORIENTED_EDGE ( 'NONE', *, *, #162, .F. ) ;
#27 = ADVANCED_FACE ( 'NONE', ( #185 ), #7, .F. ) ;
#28 = CARTESIAN_POINT ( 'NONE',  ( -25.00000000000000000, 25.00000000000000000, 3.000000000000000000 ) ) ;
#29 = EDGE_LOOP ( 'NONE', ( #234, #127, #88, #157 ) ) ;
#30 = SECURITY_CLASSIFICATION_LEVEL ( 'unclassified' ) ;
#31 = CC_DESIGN_APPROVAL ( #149, ( #139 ) ) ;
#32 = APPROVAL_DATE_TIME ( #14, #149 ) ;
#33 = ORIENTED_EDGE ( 'NONE', *, *, #116, .F. ) ;
#34 = ORIENTED_EDGE ( 'NONE', *, *, #40, .T. ) ;
#35 = CC_DESIGN_PERSON_AND_ORGANIZATION_ASSIGNMENT ( #213, #6, ( #87 ) ) ;
#36 = PRODUCT_RELATED_PRODUCT_CATEGORY ( 'detail', '', ( #66 ) ) ;
#37 = LOCAL_TIME ( 10, 13, 31.00000000000000000, #156 ) ;
#38 = PERSON_AND_ORGANIZATION ( #223, #188 ) ;
#39 = DIRECTION ( 'NONE',  ( 0.0000000000000000000, 0.0000000000000000000, 1.000000000000000000 ) ) ;
#40 = EDGE_CURVE ( 'NONE', #75, #161, #195, .T. ) ;
#41 = CC_DESIGN_PERSON_AND_ORGANIZATION_ASSIGNMENT ( #49, #166, ( #139 ) ) ;
#42 = CARTESIAN_POINT ( 'NONE',  ( -25.00000000000000000, -25.00000000000000000, 0.0000000000000000000 ) ) ;
#43 = APPROVAL_PERSON_ORGANIZATION ( #92, #149, #154 ) ;
#44 = VECTOR ( 'NONE', #209, 1000.000000000000000 ) ;
#45 = ORIENTED_EDGE ( 'NONE', *, *, #212, .T. ) ;
#46 = ADVANCED_FACE ( 'NONE', ( #104 ), #158, .T. ) ;
#47 = APPROVAL_ROLE ( '' ) ;
#48 = DIRECTION ( 'NONE',  ( 0.0000000000000000000, 0.0000000000000000000, -1.000000000000000000 ) ) ;
#49 = PERSON_AND_ORGANIZATION ( #223, #188 ) ;
#50 = LINE ( 'NONE', #95, #56 ) ;
#51 = CC_DESIGN_PERSON_AND_ORGANIZATION_ASSIGNMENT ( #208, #194, ( #220 ) ) ;
#52 = PLANE ( 'NONE',  #146 ) ;
#53 = ORIENTED_EDGE ( 'NONE', *, *, #237, .T. ) ;
#54 = FACE_OUTER_BOUND ( 'NONE', #29, .T. ) ;
#55 = UNCERTAINTY_MEASURE_WITH_UNIT (LENGTH_MEASURE( 1.000000000000000082E-05 ), #178, 'distance_accuracy_value', 'NONE');
#56 = VECTOR ( 'NONE', #94, 1000.000000000000000 ) ;
#57 = ORIENTED_EDGE ( 'NONE', *, *, #180, .F. ) ;
#58 = CARTESIAN_POINT ( 'NONE',  ( -25.00000000000000000, -25.00000000000000000, 3.000000000000000000 ) ) ;
#59 = LOCAL_TIME ( 10, 13, 31.00000000000000000, #123 ) ;
#60 = LOCAL_TIME ( 10, 13, 31.00000000000000000, #218 ) ;
#61 = ADVANCED_FACE ( 'NONE', ( #110 ), #159, .F. ) ;
#62 = DATE_TIME_ROLE ( 'creation_date' ) ;
#63 = ADVANCED_FACE ( 'NONE', ( #170 ), #52, .F. ) ;
#64 = VERTEX_POINT ( 'NONE', #224 ) ;
#65 = ADVANCED_BREP_SHAPE_REPRESENTATION ( 'Web Model 49583_49583', ( #21, #126 ), #111 ) ;
#66 = PRODUCT ( 'Web Model 49583_49583', 'Web Model 49583_49583', '', ( #102 ) ) ;
#67 = VECTOR ( 'NONE', #182, 1000.000000000000000 ) ;
#68 = CLOSED_SHELL ( 'NONE', ( #165, #63, #61, #99, #27, #46 ) ) ;
#69 = PLANE ( 'NONE',  #210 ) ;
#70 = ORIENTED_EDGE ( 'NONE', *, *, #171, .T. ) ;
#71 = CARTESIAN_POINT ( 'NONE',  ( -25.00000000000000000, 25.00000000000000000, 0.0000000000000000000 ) ) ;
#72 = VECTOR ( 'NONE', #79, 1000.000000000000000 ) ;
#73 = ORIENTED_EDGE ( 'NONE', *, *, #217, .F. ) ;
#74 = CARTESIAN_POINT ( 'NONE',  ( 25.00000000000000000, -25.00000000000000000, 3.000000000000000000 ) ) ;
#75 = VERTEX_POINT ( 'NONE', #173 ) ;
#76 = DIRECTION ( 'NONE',  ( 0.0000000000000000000, -1.000000000000000000, 0.0000000000000000000 ) ) ;
#77 = APPROVAL ( #119, 'UNSPECIFIED' ) ;
#78 = CARTESIAN_POINT ( 'NONE',  ( 25.00000000000000000, 25.00000000000000000, 3.000000000000000000 ) ) ;
#79 = DIRECTION ( 'NONE',  ( 0.0000000000000000000, 0.0000000000000000000, -1.000000000000000000 ) ) ;
#80 = EDGE_LOOP ( 'NONE', ( #16, #45, #70, #152 ) ) ;
#81 = CARTESIAN_POINT ( 'NONE',  ( 0.0000000000000000000, 0.0000000000000000000, 3.000000000000000000 ) ) ;
#82 = AXIS2_PLACEMENT_3D ( 'NONE', #186, #89, #85 ) ;
#83 = APPROVAL_PERSON_ORGANIZATION ( #38, #13, #47 ) ;
#84 = CARTESIAN_POINT ( 'NONE',  ( 25.00000000000000000, -25.00000000000000000, 3.000000000000000000 ) ) ;
#85 = DIRECTION ( 'NONE',  ( 0.0000000000000000000, -1.000000000000000000, 0.0000000000000000000 ) ) ;
#86 = LINE ( 'NONE', #117, #230 ) ;
#87 = PRODUCT_DEFINITION ( 'UNKNOWN', '', #139, #231 ) ;
#88 = ORIENTED_EDGE ( 'NONE', *, *, #10, .F. ) ;
#89 = DIRECTION ( 'NONE',  ( 0.0000000000000000000, 0.0000000000000000000, -1.000000000000000000 ) ) ;
#90 = CALENDAR_DATE ( 2019, 23, 4 ) ;
#91 = DIRECTION ( 'NONE',  ( 1.000000000000000000, 0.0000000000000000000, 0.0000000000000000000 ) ) ;
#92 = PERSON_AND_ORGANIZATION ( #223, #188 ) ;
#93 = DIRECTION ( 'NONE',  ( -0.0000000000000000000, 1.000000000000000000, 0.0000000000000000000 ) ) ;
#94 = DIRECTION ( 'NONE',  ( 0.0000000000000000000, -1.000000000000000000, 0.0000000000000000000 ) ) ;
#95 = CARTESIAN_POINT ( 'NONE',  ( -25.00000000000000000, -25.00000000000000000, 0.0000000000000000000 ) ) ;
#96 = CARTESIAN_POINT ( 'NONE',  ( -25.00000000000000000, -25.00000000000000000, 3.000000000000000000 ) ) ;
#97 =( NAMED_UNIT ( * ) SI_UNIT ( $, .STERADIAN. ) SOLID_ANGLE_UNIT ( ) );
#98 = CALENDAR_DATE ( 2019, 23, 4 ) ;
#99 = ADVANCED_FACE ( 'NONE', ( #100 ), #69, .F. ) ;
#100 = FACE_OUTER_BOUND ( 'NONE', #202, .T. ) ;
#101 = CC_DESIGN_APPROVAL ( #13, ( #87 ) ) ;
#102 = MECHANICAL_CONTEXT ( 'NONE', #136, 'mechanical' ) ;
#103 = DATE_AND_TIME ( #90, #187 ) ;
#104 = FACE_OUTER_BOUND ( 'NONE', #169, .T. ) ;
#105 = CALENDAR_DATE ( 2019, 23, 4 ) ;
#106 = ORIENTED_EDGE ( 'NONE', *, *, #212, .F. ) ;
#107 = CALENDAR_DATE ( 2019, 23, 4 ) ;
#108 = VECTOR ( 'NONE', #22, 1000.000000000000000 ) ;
#109 = DIRECTION ( 'NONE',  ( 0.0000000000000000000, 1.000000000000000000, 0.0000000000000000000 ) ) ;
#110 = FACE_OUTER_BOUND ( 'NONE', #131, .T. ) ;
#111 =( GEOMETRIC_REPRESENTATION_CONTEXT ( 3 ) GLOBAL_UNCERTAINTY_ASSIGNED_CONTEXT ( ( #55 ) ) GLOBAL_UNIT_ASSIGNED_CONTEXT ( ( #178, #191, #97 ) ) REPRESENTATION_CONTEXT ( 'NONE', 'WORKASPACE' ) );
#112 = CARTESIAN_POINT ( 'NONE',  ( -25.00000000000000000, 25.00000000000000000, 3.000000000000000000 ) ) ;
#113 = CALENDAR_DATE ( 2019, 23, 4 ) ;
#114 = VERTEX_POINT ( 'NONE', #232 ) ;
#115 = CARTESIAN_POINT ( 'NONE',  ( 25.00000000000000000, -25.00000000000000000, 3.000000000000000000 ) ) ;
#116 = EDGE_CURVE ( 'NONE', #64, #226, #225, .T. ) ;
#117 = CARTESIAN_POINT ( 'NONE',  ( -25.00000000000000000, -25.00000000000000000, 3.000000000000000000 ) ) ;
#118 = VECTOR ( 'NONE', #17, 1000.000000000000000 ) ;
#119 = APPROVAL_STATUS ( 'not_yet_approved' ) ;
#120 = APPLICATION_PROTOCOL_DEFINITION ( 'international standard', 'config_control_design', 1994, #196 ) ;
#121 = EDGE_LOOP ( 'NONE', ( #125, #168, #106, #138 ) ) ;
#122 = AXIS2_PLACEMENT_3D ( 'NONE', #227, #11, #143 ) ;
#123 = COORDINATED_UNIVERSAL_TIME_OFFSET ( 5, 0, .BEHIND. ) ;
#124 = VECTOR ( 'NONE', #76, 1000.000000000000000 ) ;
#125 = ORIENTED_EDGE ( 'NONE', *, *, #162, .T. ) ;
#126 = AXIS2_PLACEMENT_3D ( 'NONE', #151, #235, #153 ) ;
#127 = ORIENTED_EDGE ( 'NONE', *, *, #203, .F. ) ;
#128 = CC_DESIGN_APPROVAL ( #77, ( #220 ) ) ;
#129 = CARTESIAN_POINT ( 'NONE',  ( 25.00000000000000000, -25.00000000000000000, 0.0000000000000000000 ) ) ;
#130 = DATE_AND_TIME ( #105, #37 ) ;
#131 = EDGE_LOOP ( 'NONE', ( #4, #19, #207, #34 ) ) ;
#132 = LOCAL_TIME ( 10, 13, 31.00000000000000000, #172 ) ;
#133 = CC_DESIGN_DATE_AND_TIME_ASSIGNMENT ( #201, #179, ( #220 ) ) ;
#134 = PLANE ( 'NONE',  #192 ) ;
#135 = LINE ( 'NONE', #96, #118 ) ;
#136 = APPLICATION_CONTEXT ( 'configuration controlled 3d designs of mechanical parts and assemblies' ) ;
#137 = VECTOR ( 'NONE', #109, 1000.000000000000000 ) ;
#138 = ORIENTED_EDGE ( 'NONE', *, *, #203, .T. ) ;
#139 = PRODUCT_DEFINITION_FORMATION_WITH_SPECIFIED_SOURCE ( 'ANY', '', #66, .NOT_KNOWN. ) ;
#140 = PERSON_AND_ORGANIZATION_ROLE ( 'creator' ) ;
#141 = APPROVAL_DATE_TIME ( #103, #77 ) ;
#142 = LINE ( 'NONE', #42, #175 ) ;
#143 = DIRECTION ( 'NONE',  ( 0.0000000000000000000, 1.000000000000000000, 0.0000000000000000000 ) ) ;
#144 = CC_DESIGN_SECURITY_CLASSIFICATION ( #220, ( #139 ) ) ;
#145 = CARTESIAN_POINT ( 'NONE',  ( -25.00000000000000000, 25.00000000000000000, 3.000000000000000000 ) ) ;
#146 = AXIS2_PLACEMENT_3D ( 'NONE', #145, #184, #12 ) ;
#147 = CARTESIAN_POINT ( 'NONE',  ( -25.00000000000000000, 25.00000000000000000, 0.0000000000000000000 ) ) ;
#148 = ORIENTED_EDGE ( 'NONE', *, *, #190, .F. ) ;
#149 = APPROVAL ( #5, 'UNSPECIFIED' ) ;
#150 = CARTESIAN_POINT ( 'NONE',  ( 25.00000000000000000, 25.00000000000000000, 3.000000000000000000 ) ) ;
#151 = CARTESIAN_POINT ( 'NONE',  ( 0.0000000000000000000, 0.0000000000000000000, 0.0000000000000000000 ) ) ;
#152 = ORIENTED_EDGE ( 'NONE', *, *, #228, .T. ) ;
#153 = DIRECTION ( 'NONE',  ( 1.000000000000000000, 0.0000000000000000000, 0.0000000000000000000 ) ) ;
#154 = APPROVAL_ROLE ( '' ) ;
#155 = PERSON_AND_ORGANIZATION ( #223, #188 ) ;
#156 = COORDINATED_UNIVERSAL_TIME_OFFSET ( 5, 0, .BEHIND. ) ;
#157 = ORIENTED_EDGE ( 'NONE', *, *, #190, .T. ) ;
#158 = PLANE ( 'NONE',  #82 ) ;
#159 = PLANE ( 'NONE',  #122 ) ;
#160 = VECTOR ( 'NONE', #236, 1000.000000000000000 ) ;
#161 = VERTEX_POINT ( 'NONE', #71 ) ;
#162 = EDGE_CURVE ( 'NONE', #226, #161, #1, .T. ) ;
#163 = DIRECTION ( 'NONE',  ( 0.0000000000000000000, 0.0000000000000000000, -1.000000000000000000 ) ) ;
#164 = CARTESIAN_POINT ( 'NONE',  ( -25.00000000000000000, -25.00000000000000000, 0.0000000000000000000 ) ) ;
#165 = ADVANCED_FACE ( 'NONE', ( #54 ), #134, .F. ) ;
#166 = PERSON_AND_ORGANIZATION_ROLE ( 'design_supplier' ) ;
#167 = LINE ( 'NONE', #112, #160 ) ;
#168 = ORIENTED_EDGE ( 'NONE', *, *, #40, .F. ) ;
#169 = EDGE_LOOP ( 'NONE', ( #33, #57, #73, #26 ) ) ;
#170 = FACE_OUTER_BOUND ( 'NONE', #121, .T. ) ;
#171 = EDGE_CURVE ( 'NONE', #75, #197, #183, .T. ) ;
#172 = COORDINATED_UNIVERSAL_TIME_OFFSET ( 5, 0, .BEHIND. ) ;
#173 = CARTESIAN_POINT ( 'NONE',  ( -25.00000000000000000, 25.00000000000000000, 3.000000000000000000 ) ) ;
#174 = PERSON_AND_ORGANIZATION ( #223, #188 ) ;
#175 = VECTOR ( 'NONE', #193, 1000.000000000000000 ) ;
#176 = LINE ( 'NONE', #74, #108 ) ;
#177 = VERTEX_POINT ( 'NONE', #78 ) ;
#178 =( LENGTH_UNIT ( ) NAMED_UNIT ( * ) SI_UNIT ( .MILLI., .METRE. ) );
#179 = DATE_TIME_ROLE ( 'classification_date' ) ;
#180 = EDGE_CURVE ( 'NONE', #204, #64, #142, .T. ) ;
#181 = APPROVAL_DATE_TIME ( #130, #13 ) ;
#182 = DIRECTION ( 'NONE',  ( 0.0000000000000000000, 0.0000000000000000000, -1.000000000000000000 ) ) ;
#183 = LINE ( 'NONE', #211, #124 ) ;
#184 = DIRECTION ( 'NONE',  ( 0.0000000000000000000, -1.000000000000000000, 0.0000000000000000000 ) ) ;
#185 = FACE_OUTER_BOUND ( 'NONE', #80, .T. ) ;
#186 = CARTESIAN_POINT ( 'NONE',  ( 0.0000000000000000000, 0.0000000000000000000, 0.0000000000000000000 ) ) ;
#187 = LOCAL_TIME ( 10, 13, 31.00000000000000000, #229 ) ;
#188 = ORGANIZATION ( 'UNSPECIFIED', 'UNSPECIFIED', '' ) ;
#189 = CARTESIAN_POINT ( 'NONE',  ( -25.00000000000000000, -25.00000000000000000, 3.000000000000000000 ) ) ;
#190 = EDGE_CURVE ( 'NONE', #114, #64, #176, .T. ) ;
#191 =( NAMED_UNIT ( * ) PLANE_ANGLE_UNIT ( ) SI_UNIT ( $, .RADIAN. ) );
#192 = AXIS2_PLACEMENT_3D ( 'NONE', #115, #20, #39 ) ;
#193 = DIRECTION ( 'NONE',  ( 1.000000000000000000, 0.0000000000000000000, 0.0000000000000000000 ) ) ;
#194 = PERSON_AND_ORGANIZATION_ROLE ( 'classification_officer' ) ;
#195 = LINE ( 'NONE', #28, #67 ) ;
#196 = APPLICATION_CONTEXT ( 'configuration controlled 3d designs of mechanical parts and assemblies' ) ;
#197 = VERTEX_POINT ( 'NONE', #58 ) ;
#198 = DIRECTION ( 'NONE',  ( 0.0000000000000000000, -1.000000000000000000, 0.0000000000000000000 ) ) ;
#199 = ORIENTED_EDGE ( 'NONE', *, *, #180, .T. ) ;
#200 = DIRECTION ( 'NONE',  ( 0.0000000000000000000, 1.000000000000000000, 0.0000000000000000000 ) ) ;
#201 = DATE_AND_TIME ( #113, #59 ) ;
#202 = EDGE_LOOP ( 'NONE', ( #199, #148, #214, #53 ) ) ;
#203 = EDGE_CURVE ( 'NONE', #177, #226, #233, .T. ) ;
#204 = VERTEX_POINT ( 'NONE', #164 ) ;
#205 = CC_DESIGN_PERSON_AND_ORGANIZATION_ASSIGNMENT ( #3, #219, ( #66 ) ) ;
#206 = DATE_AND_TIME ( #98, #60 ) ;
#207 = ORIENTED_EDGE ( 'NONE', *, *, #171, .F. ) ;
#208 = PERSON_AND_ORGANIZATION ( #223, #188 ) ;
#209 = DIRECTION ( 'NONE',  ( -1.000000000000000000, 0.0000000000000000000, 0.0000000000000000000 ) ) ;
#210 = AXIS2_PLACEMENT_3D ( 'NONE', #189, #93, #91 ) ;
#211 = CARTESIAN_POINT ( 'NONE',  ( -25.00000000000000000, -25.00000000000000000, 3.000000000000000000 ) ) ;
#212 = EDGE_CURVE ( 'NONE', #177, #75, #167, .T. ) ;
#213 = PERSON_AND_ORGANIZATION ( #223, #188 ) ;
#214 = ORIENTED_EDGE ( 'NONE', *, *, #228, .F. ) ;
#215 = APPROVAL_ROLE ( '' ) ;
#216 = APPROVAL_STATUS ( 'not_yet_approved' ) ;
#217 = EDGE_CURVE ( 'NONE', #161, #204, #50, .T. ) ;
#218 = COORDINATED_UNIVERSAL_TIME_OFFSET ( 5, 0, .BEHIND. ) ;
#219 = PERSON_AND_ORGANIZATION_ROLE ( 'design_owner' ) ;
#220 = SECURITY_CLASSIFICATION ( '', '', #30 ) ;
#221 = CC_DESIGN_DATE_AND_TIME_ASSIGNMENT ( #206, #62, ( #87 ) ) ;
#222 = VECTOR ( 'NONE', #200, 1000.000000000000000 ) ;
#223 = PERSON ( 'UNSPECIFIED', 'UNSPECIFIED', 'UNSPECIFIED', ('UNSPECIFIED'), ('UNSPECIFIED'), ('UNSPECIFIED') ) ;
#224 = CARTESIAN_POINT ( 'NONE',  ( 25.00000000000000000, -25.00000000000000000, 0.0000000000000000000 ) ) ;
#225 = LINE ( 'NONE', #129, #137 ) ;
#226 = VERTEX_POINT ( 'NONE', #2 ) ;
#227 = CARTESIAN_POINT ( 'NONE',  ( -25.00000000000000000, -25.00000000000000000, 3.000000000000000000 ) ) ;
#228 = EDGE_CURVE ( 'NONE', #197, #114, #135, .T. ) ;
#229 = COORDINATED_UNIVERSAL_TIME_OFFSET ( 5, 0, .BEHIND. ) ;
#230 = VECTOR ( 'NONE', #163, 1000.000000000000000 ) ;
#231 = DESIGN_CONTEXT ( 'detailed design', #196, 'design' ) ;
#232 = CARTESIAN_POINT ( 'NONE',  ( 25.00000000000000000, -25.00000000000000000, 3.000000000000000000 ) ) ;
#233 = LINE ( 'NONE', #150, #72 ) ;
#234 = ORIENTED_EDGE ( 'NONE', *, *, #116, .T. ) ;
#235 = DIRECTION ( 'NONE',  ( 0.0000000000000000000, 0.0000000000000000000, 1.000000000000000000 ) ) ;
#236 = DIRECTION ( 'NONE',  ( -1.000000000000000000, 0.0000000000000000000, 0.0000000000000000000 ) ) ;
#237 = EDGE_CURVE ( 'NONE', #197, #204, #86, .T. ) ;
ENDSEC;
END-ISO-10303-21;
