ISO-10303-21;
HEADER;
FILE_DESCRIPTION (( 'STEP AP203' ),
    '1' );
FILE_NAME ('Web Model 45817_45817.step',
    '2020-10-21T18:31:57',
    ( '' ),
    ( '' ),
    'SwSTEP 2.0',
    'SolidWorks 2018',
    '' );
FILE_SCHEMA (( 'CONFIG_CONTROL_DESIGN' ));
ENDSEC;

DATA;
#1 = COORDINATED_UNIVERSAL_TIME_OFFSET ( 5, 0, .BEHIND. ) ;
#2 = LINE ( 'NONE', #26, #85 ) ;
#3 = DATE_TIME_ROLE ( 'creation_date' ) ;
#4 = DIRECTION ( 'NONE',  ( -1.000000000000000000, 0.0000000000000000000, 0.0000000000000000000 ) ) ;
#5 = AXIS2_PLACEMENT_3D ( 'NONE', #84, #119, #149 ) ;
#6 = PERSON_AND_ORGANIZATION ( #142, #20 ) ;
#7 = VERTEX_POINT ( 'NONE', #159 ) ;
#8 = ORIENTED_EDGE ( 'NONE', *, *, #127, .T. ) ;
#9 = CARTESIAN_POINT ( 'NONE',  ( 0.0000000000000000000, 0.0000000000000000000, 3.180000000000000160 ) ) ;
#10 = AXIS2_PLACEMENT_3D ( 'NONE', #9, #29, #55 ) ;
#11 = LOCAL_TIME ( 14, 31, 57.00000000000000000, #74 ) ;
#12 = DIRECTION ( 'NONE',  ( 0.0000000000000000000, 0.0000000000000000000, 1.000000000000000000 ) ) ;
#13 = VERTEX_POINT ( 'NONE', #100 ) ;
#14 = DIRECTION ( 'NONE',  ( 1.000000000000000000, 0.0000000000000000000, -0.0000000000000000000 ) ) ;
#15 = APPLICATION_PROTOCOL_DEFINITION ( 'international standard', 'config_control_design', 1994, #18 ) ;
#16 = CALENDAR_DATE ( 2020, 21, 10 ) ;
#17 = DIRECTION ( 'NONE',  ( -0.0000000000000000000, -0.0000000000000000000, -1.000000000000000000 ) ) ;
#18 = APPLICATION_CONTEXT ( 'configuration controlled 3d designs of mechanical parts and assemblies' ) ;
#19 = CC_DESIGN_APPROVAL ( #54, ( #110 ) ) ;
#20 = ORGANIZATION ( 'UNSPECIFIED', 'UNSPECIFIED', '' ) ;
#21 = EDGE_CURVE ( 'NONE', #13, #155, #27, .T. ) ;
#22 = MECHANICAL_CONTEXT ( 'NONE', #18, 'mechanical' ) ;
#23 = COORDINATED_UNIVERSAL_TIME_OFFSET ( 5, 0, .BEHIND. ) ;
#24 = CIRCLE ( 'NONE', #35, 25.39999999999999858 ) ;
#25 = SHAPE_DEFINITION_REPRESENTATION ( #91, #158 ) ;
#26 = CARTESIAN_POINT ( 'NONE',  ( 25.39999999999999858, 3.110602869834276076E-15, 3.180000000000000160 ) ) ;
#27 = LINE ( 'NONE', #93, #129 ) ;
#28 = AXIS2_PLACEMENT_3D ( 'NONE', #162, #94, #111 ) ;
#29 = DIRECTION ( 'NONE',  ( 0.0000000000000000000, 0.0000000000000000000, 1.000000000000000000 ) ) ;
#30 = AXIS2_PLACEMENT_3D ( 'NONE', #164, #97, #146 ) ;
#31 = CALENDAR_DATE ( 2020, 21, 10 ) ;
#32 = DIRECTION ( 'NONE',  ( -0.0000000000000000000, -0.0000000000000000000, -1.000000000000000000 ) ) ;
#33 = FACE_OUTER_BOUND ( 'NONE', #48, .T. ) ;
#34 = APPROVAL_ROLE ( '' ) ;
#35 = AXIS2_PLACEMENT_3D ( 'NONE', #137, #12, #70 ) ;
#36 = LOCAL_TIME ( 14, 31, 57.00000000000000000, #69 ) ;
#37 = CIRCLE ( 'NONE', #28, 25.39999999999999858 ) ;
#38 = APPROVAL_PERSON_ORGANIZATION ( #128, #92, #76 ) ;
#39 = LOCAL_TIME ( 14, 31, 57.00000000000000000, #1 ) ;
#40 = CC_DESIGN_PERSON_AND_ORGANIZATION_ASSIGNMENT ( #81, #53, ( #168 ) ) ;
#41 = CALENDAR_DATE ( 2020, 21, 10 ) ;
#42 = FACE_OUTER_BOUND ( 'NONE', #131, .T. ) ;
#43 = CARTESIAN_POINT ( 'NONE',  ( 0.0000000000000000000, 0.0000000000000000000, 0.0000000000000000000 ) ) ;
#44 = CARTESIAN_POINT ( 'NONE',  ( 25.39999999999999858, 3.110602869834276076E-15, 3.180000000000000160 ) ) ;
#45 = DATE_AND_TIME ( #16, #73 ) ;
#46 = PERSON_AND_ORGANIZATION ( #142, #20 ) ;
#47 = ORIENTED_EDGE ( 'NONE', *, *, #124, .T. ) ;
#48 = EDGE_LOOP ( 'NONE', ( #121, #61, #8, #153 ) ) ;
#49 = ADVANCED_FACE ( 'NONE', ( #165 ), #160, .T. ) ;
#50 = PERSON_AND_ORGANIZATION_ROLE ( 'classification_officer' ) ;
#51 = CIRCLE ( 'NONE', #10, 25.39999999999999858 ) ;
#52 = CC_DESIGN_PERSON_AND_ORGANIZATION_ASSIGNMENT ( #105, #50, ( #72 ) ) ;
#53 = PERSON_AND_ORGANIZATION_ROLE ( 'design_owner' ) ;
#54 = APPROVAL ( #109, 'UNSPECIFIED' ) ;
#55 = DIRECTION ( 'NONE',  ( 1.000000000000000000, 0.0000000000000000000, 0.0000000000000000000 ) ) ;
#56 = DIRECTION ( 'NONE',  ( -0.0000000000000000000, -0.0000000000000000000, -1.000000000000000000 ) ) ;
#57 = CC_DESIGN_APPROVAL ( #92, ( #72 ) ) ;
#58 = DIRECTION ( 'NONE',  ( 0.0000000000000000000, 0.0000000000000000000, 1.000000000000000000 ) ) ;
#59 = PLANE ( 'NONE',  #125 ) ;
#60 = PLANE ( 'NONE',  #171 ) ;
#61 = ORIENTED_EDGE ( 'NONE', *, *, #87, .T. ) ;
#62 = EDGE_CURVE ( 'NONE', #63, #13, #51, .T. ) ;
#63 = VERTEX_POINT ( 'NONE', #44 ) ;
#64 = PERSON_AND_ORGANIZATION ( #142, #20 ) ;
#65 = APPLICATION_CONTEXT ( 'configuration controlled 3d designs of mechanical parts and assemblies' ) ;
#66 = CALENDAR_DATE ( 2020, 21, 10 ) ;
#67 = FACE_OUTER_BOUND ( 'NONE', #150, .T. ) ;
#68 = DIRECTION ( 'NONE',  ( 0.0000000000000000000, 0.0000000000000000000, 1.000000000000000000 ) ) ;
#69 = COORDINATED_UNIVERSAL_TIME_OFFSET ( 5, 0, .BEHIND. ) ;
#70 = DIRECTION ( 'NONE',  ( 1.000000000000000000, 0.0000000000000000000, 0.0000000000000000000 ) ) ;
#71 = DATE_AND_TIME ( #66, #39 ) ;
#72 = SECURITY_CLASSIFICATION ( '', '', #99 ) ;
#73 = LOCAL_TIME ( 14, 31, 57.00000000000000000, #23 ) ;
#74 = COORDINATED_UNIVERSAL_TIME_OFFSET ( 5, 0, .BEHIND. ) ;
#75 = ADVANCED_FACE ( 'NONE', ( #67 ), #60, .F. ) ;
#76 = APPROVAL_ROLE ( '' ) ;
#77 = UNCERTAINTY_MEASURE_WITH_UNIT (LENGTH_MEASURE( 1.000000000000000082E-05 ), #136, 'distance_accuracy_value', 'NONE');
#78 = APPLICATION_PROTOCOL_DEFINITION ( 'international standard', 'config_control_design', 1994, #65 ) ;
#79 = PERSON_AND_ORGANIZATION ( #142, #20 ) ;
#80 = CARTESIAN_POINT ( 'NONE',  ( 0.0000000000000000000, 0.0000000000000000000, 3.180000000000000160 ) ) ;
#81 = PERSON_AND_ORGANIZATION ( #142, #20 ) ;
#82 = CC_DESIGN_PERSON_AND_ORGANIZATION_ASSIGNMENT ( #64, #141, ( #143 ) ) ;
#83 = ORIENTED_EDGE ( 'NONE', *, *, #127, .F. ) ;
#84 = CARTESIAN_POINT ( 'NONE',  ( 0.0000000000000000000, 0.0000000000000000000, 0.0000000000000000000 ) ) ;
#85 = VECTOR ( 'NONE', #56, 1000.000000000000000 ) ;
#86 = ORIENTED_EDGE ( 'NONE', *, *, #124, .F. ) ;
#87 = EDGE_CURVE ( 'NONE', #63, #7, #2, .T. ) ;
#88 = DATE_TIME_ROLE ( 'classification_date' ) ;
#89 = ADVANCED_FACE ( 'NONE', ( #42 ), #59, .T. ) ;
#90 = EDGE_LOOP ( 'NONE', ( #108, #86, #123, #144 ) ) ;
#91 = PRODUCT_DEFINITION_SHAPE ( 'NONE', 'NONE',  #110 ) ;
#92 = APPROVAL ( #117, 'UNSPECIFIED' ) ;
#93 = CARTESIAN_POINT ( 'NONE',  ( -25.39999999999999858, 0.0000000000000000000, 3.180000000000000160 ) ) ;
#94 = DIRECTION ( 'NONE',  ( 0.0000000000000000000, 0.0000000000000000000, 1.000000000000000000 ) ) ;
#95 = ORIENTED_EDGE ( 'NONE', *, *, #106, .F. ) ;
#96 = DIRECTION ( 'NONE',  ( -1.000000000000000000, 0.0000000000000000000, 0.0000000000000000000 ) ) ;
#97 = DIRECTION ( 'NONE',  ( 0.0000000000000000000, 0.0000000000000000000, 1.000000000000000000 ) ) ;
#98 = APPROVAL_DATE_TIME ( #152, #54 ) ;
#99 = SECURITY_CLASSIFICATION_LEVEL ( 'unclassified' ) ;
#100 = CARTESIAN_POINT ( 'NONE',  ( -25.39999999999999858, 0.0000000000000000000, 3.180000000000000160 ) ) ;
#101 = APPROVAL_PERSON_ORGANIZATION ( #139, #54, #138 ) ;
#102 = CC_DESIGN_SECURITY_CLASSIFICATION ( #72, ( #143 ) ) ;
#103 = ORIENTED_EDGE ( 'NONE', *, *, #62, .T. ) ;
#104 = APPROVAL_DATE_TIME ( #45, #92 ) ;
#105 = PERSON_AND_ORGANIZATION ( #142, #20 ) ;
#106 = EDGE_CURVE ( 'NONE', #155, #7, #140, .T. ) ;
#107 = COORDINATED_UNIVERSAL_TIME_OFFSET ( 5, 0, .BEHIND. ) ;
#108 = ORIENTED_EDGE ( 'NONE', *, *, #87, .F. ) ;
#109 = APPROVAL_STATUS ( 'not_yet_approved' ) ;
#110 = PRODUCT_DEFINITION ( 'UNKNOWN', '', #143, #151 ) ;
#111 = DIRECTION ( 'NONE',  ( 1.000000000000000000, 0.0000000000000000000, 0.0000000000000000000 ) ) ;
#112 =( NAMED_UNIT ( * ) PLANE_ANGLE_UNIT ( ) SI_UNIT ( $, .RADIAN. ) );
#113 = CLOSED_SHELL ( 'NONE', ( #120, #49, #89, #75 ) ) ;
#114 = PRODUCT_RELATED_PRODUCT_CATEGORY ( 'detail', '', ( #168 ) ) ;
#115 = CARTESIAN_POINT ( 'NONE',  ( 0.0000000000000000000, 0.0000000000000000000, 3.180000000000000160 ) ) ;
#116 = PERSON_AND_ORGANIZATION_ROLE ( 'creator' ) ;
#117 = APPROVAL_STATUS ( 'not_yet_approved' ) ;
#118 = AXIS2_PLACEMENT_3D ( 'NONE', #115, #32, #96 ) ;
#119 = DIRECTION ( 'NONE',  ( 0.0000000000000000000, 0.0000000000000000000, 1.000000000000000000 ) ) ;
#120 = ADVANCED_FACE ( 'NONE', ( #33 ), #170, .T. ) ;
#121 = ORIENTED_EDGE ( 'NONE', *, *, #62, .F. ) ;
#122 = LOCAL_TIME ( 14, 31, 57.00000000000000000, #107 ) ;
#123 = ORIENTED_EDGE ( 'NONE', *, *, #21, .T. ) ;
#124 = EDGE_CURVE ( 'NONE', #13, #63, #24, .T. ) ;
#125 = AXIS2_PLACEMENT_3D ( 'NONE', #80, #68, #14 ) ;
#126 = CARTESIAN_POINT ( 'NONE',  ( -25.39999999999999858, 0.0000000000000000000, 0.0000000000000000000 ) ) ;
#127 = EDGE_CURVE ( 'NONE', #7, #155, #37, .T. ) ;
#128 = PERSON_AND_ORGANIZATION ( #142, #20 ) ;
#129 = VECTOR ( 'NONE', #132, 1000.000000000000000 ) ;
#130 = CC_DESIGN_DATE_AND_TIME_ASSIGNMENT ( #135, #3, ( #110 ) ) ;
#131 = EDGE_LOOP ( 'NONE', ( #47, #103 ) ) ;
#132 = DIRECTION ( 'NONE',  ( -0.0000000000000000000, -0.0000000000000000000, -1.000000000000000000 ) ) ;
#133 =( GEOMETRIC_REPRESENTATION_CONTEXT ( 3 ) GLOBAL_UNCERTAINTY_ASSIGNED_CONTEXT ( ( #77 ) ) GLOBAL_UNIT_ASSIGNED_CONTEXT ( ( #136, #112, #147 ) ) REPRESENTATION_CONTEXT ( 'NONE', 'WORKASPACE' ) );
#134 = DATE_AND_TIME ( #172, #36 ) ;
#135 = DATE_AND_TIME ( #41, #122 ) ;
#136 =( LENGTH_UNIT ( ) NAMED_UNIT ( * ) SI_UNIT ( .MILLI., .METRE. ) );
#137 = CARTESIAN_POINT ( 'NONE',  ( 0.0000000000000000000, 0.0000000000000000000, 3.180000000000000160 ) ) ;
#138 = APPROVAL_ROLE ( '' ) ;
#139 = PERSON_AND_ORGANIZATION ( #142, #20 ) ;
#140 = CIRCLE ( 'NONE', #30, 25.39999999999999858 ) ;
#141 = PERSON_AND_ORGANIZATION_ROLE ( 'creator' ) ;
#142 = PERSON ( 'UNSPECIFIED', 'UNSPECIFIED', 'UNSPECIFIED', ('UNSPECIFIED'), ('UNSPECIFIED'), ('UNSPECIFIED') ) ;
#143 = PRODUCT_DEFINITION_FORMATION_WITH_SPECIFIED_SOURCE ( 'ANY', '', #168, .NOT_KNOWN. ) ;
#144 = ORIENTED_EDGE ( 'NONE', *, *, #106, .T. ) ;
#145 = CC_DESIGN_APPROVAL ( #166, ( #143 ) ) ;
#146 = DIRECTION ( 'NONE',  ( 1.000000000000000000, 0.0000000000000000000, 0.0000000000000000000 ) ) ;
#147 =( NAMED_UNIT ( * ) SI_UNIT ( $, .STERADIAN. ) SOLID_ANGLE_UNIT ( ) );
#148 = CARTESIAN_POINT ( 'NONE',  ( 0.0000000000000000000, 0.0000000000000000000, 3.180000000000000160 ) ) ;
#149 = DIRECTION ( 'NONE',  ( 1.000000000000000000, 0.0000000000000000000, 0.0000000000000000000 ) ) ;
#150 = EDGE_LOOP ( 'NONE', ( #95, #83 ) ) ;
#151 = DESIGN_CONTEXT ( 'detailed design', #65, 'design' ) ;
#152 = DATE_AND_TIME ( #31, #11 ) ;
#153 = ORIENTED_EDGE ( 'NONE', *, *, #21, .F. ) ;
#154 = CC_DESIGN_DATE_AND_TIME_ASSIGNMENT ( #134, #88, ( #72 ) ) ;
#155 = VERTEX_POINT ( 'NONE', #126 ) ;
#156 = AXIS2_PLACEMENT_3D ( 'NONE', #148, #17, #4 ) ;
#157 = DIRECTION ( 'NONE',  ( 1.000000000000000000, 0.0000000000000000000, -0.0000000000000000000 ) ) ;
#158 = ADVANCED_BREP_SHAPE_REPRESENTATION ( 'Web Model 45817_45817', ( #174, #5 ), #133 ) ;
#159 = CARTESIAN_POINT ( 'NONE',  ( 25.39999999999999858, 3.110602869834276076E-15, 0.0000000000000000000 ) ) ;
#160 = CYLINDRICAL_SURFACE ( 'NONE', #156, 25.39999999999999858 ) ;
#161 = PERSON_AND_ORGANIZATION_ROLE ( 'design_supplier' ) ;
#162 = CARTESIAN_POINT ( 'NONE',  ( 0.0000000000000000000, 0.0000000000000000000, 0.0000000000000000000 ) ) ;
#163 = APPROVAL_STATUS ( 'not_yet_approved' ) ;
#164 = CARTESIAN_POINT ( 'NONE',  ( 0.0000000000000000000, 0.0000000000000000000, 0.0000000000000000000 ) ) ;
#165 = FACE_OUTER_BOUND ( 'NONE', #90, .T. ) ;
#166 = APPROVAL ( #163, 'UNSPECIFIED' ) ;
#167 = CC_DESIGN_PERSON_AND_ORGANIZATION_ASSIGNMENT ( #46, #116, ( #110 ) ) ;
#168 = PRODUCT ( 'Web Model 45817_45817', 'Web Model 45817_45817', '', ( #22 ) ) ;
#169 = APPROVAL_PERSON_ORGANIZATION ( #79, #166, #34 ) ;
#170 = CYLINDRICAL_SURFACE ( 'NONE', #118, 25.39999999999999858 ) ;
#171 = AXIS2_PLACEMENT_3D ( 'NONE', #43, #58, #157 ) ;
#172 = CALENDAR_DATE ( 2020, 21, 10 ) ;
#173 = APPROVAL_DATE_TIME ( #71, #166 ) ;
#174 = MANIFOLD_SOLID_BREP ( 'Boss-Extrude1', #113 ) ;
#175 = CC_DESIGN_PERSON_AND_ORGANIZATION_ASSIGNMENT ( #6, #161, ( #143 ) ) ;
ENDSEC;
END-ISO-10303-21;
