ISO-10303-21;
HEADER;
FILE_DESCRIPTION (( 'STEP AP203' ),
    '1' );
FILE_NAME ('Web Model 46699.STEP',
    '2017-01-31T15:19:37',
    ( '' ),
    ( '' ),
    'SwSTEP 2.0',
    'SolidWorks 2016',
    '' );
FILE_SCHEMA (( 'CONFIG_CONTROL_DESIGN' ));
ENDSEC;

DATA;
#1 = EDGE_LOOP ( 'NONE', ( #152, #78, #14, #53 ) ) ;
#2 = EDGE_CURVE ( 'NONE', #88, #94, #13, .T. ) ;
#3 = APPROVAL_PERSON_ORGANIZATION ( #56, #220, #48 ) ;
#4 = UNCERTAINTY_MEASURE_WITH_UNIT (LENGTH_MEASURE( 1.000000000000000100E-005 ), #30, 'distance_accuracy_value', 'NONE');
#5 = CC_DESIGN_PERSON_AND_ORGANIZATION_ASSIGNMENT ( #129, #138, ( #89 ) ) ;
#6 = FACE_OUTER_BOUND ( 'NONE', #99, .T. ) ;
#7 = ORIENTED_EDGE ( 'NONE', *, *, #50, .F. ) ;
#8 = PERSON_AND_ORGANIZATION_ROLE ( 'design_owner' ) ;
#9 = PERSON_AND_ORGANIZATION_ROLE ( 'classification_officer' ) ;
#10 = LINE ( 'NONE', #141, #228 ) ;
#11 = EDGE_CURVE ( 'NONE', #161, #39, #174, .T. ) ;
#12 = CARTESIAN_POINT ( 'NONE',  ( 10.00000000000000200, -18.49999999999999600, 0.0000000000000000000 ) ) ;
#13 = LINE ( 'NONE', #85, #205 ) ;
#14 = ORIENTED_EDGE ( 'NONE', *, *, #50, .T. ) ;
#15 = ADVANCED_FACE ( 'NONE', ( #25 ), #183, .F. ) ;
#16 = DIRECTION ( 'NONE',  ( 0.0000000000000000000, -1.000000000000000000, 0.0000000000000000000 ) ) ;
#17 = PERSON_AND_ORGANIZATION ( #79, #155 ) ;
#18 = DIRECTION ( 'NONE',  ( 1.000000000000000000, 1.406532548089303500E-016, -0.0000000000000000000 ) ) ;
#19 = CARTESIAN_POINT ( 'NONE',  ( -10.00000000000000400, 18.50000000000000000, 1.000000000000000000 ) ) ;
#20 = EDGE_CURVE ( 'NONE', #88, #161, #122, .T. ) ;
#21 = ORIENTED_EDGE ( 'NONE', *, *, #2, .T. ) ;
#22 = DESIGN_CONTEXT ( 'detailed design', #227, 'design' ) ;
#23 = PERSON_AND_ORGANIZATION ( #79, #155 ) ;
#24 = ORIENTED_EDGE ( 'NONE', *, *, #54, .T. ) ;
#25 = FACE_OUTER_BOUND ( 'NONE', #80, .T. ) ;
#26 = ORIENTED_EDGE ( 'NONE', *, *, #169, .T. ) ;
#27 = APPLICATION_CONTEXT ( 'configuration controlled 3d designs of mechanical parts and assemblies' ) ;
#28 = DATE_AND_TIME ( #222, #36 ) ;
#29 = ORIENTED_EDGE ( 'NONE', *, *, #20, .F. ) ;
#30 =( LENGTH_UNIT ( ) NAMED_UNIT ( * ) SI_UNIT ( .MILLI., .METRE. ) );
#31 = APPROVAL_STATUS ( 'not_yet_approved' ) ;
#32 = DIRECTION ( 'NONE',  ( 1.406532548089303500E-016, -1.000000000000000000, 0.0000000000000000000 ) ) ;
#33 = COORDINATED_UNIVERSAL_TIME_OFFSET ( 5, 0, .BEHIND. ) ;
#34 = VERTEX_POINT ( 'NONE', #211 ) ;
#35 = DIRECTION ( 'NONE',  ( -0.0000000000000000000, 0.0000000000000000000, 1.000000000000000000 ) ) ;
#36 = LOCAL_TIME ( 10, 19, 37.00000000000000000, #117 ) ;
#37 = DIRECTION ( 'NONE',  ( -1.406532548089303500E-016, 1.000000000000000000, -0.0000000000000000000 ) ) ;
#38 = DIRECTION ( 'NONE',  ( 1.000000000000000000, 0.0000000000000000000, 0.0000000000000000000 ) ) ;
#39 = VERTEX_POINT ( 'NONE', #12 ) ;
#40 = CARTESIAN_POINT ( 'NONE',  ( -9.999999999999998200, -18.49999999999999600, 0.0000000000000000000 ) ) ;
#41 = VERTEX_POINT ( 'NONE', #125 ) ;
#42 = EDGE_CURVE ( 'NONE', #107, #94, #10, .T. ) ;
#43 = LINE ( 'NONE', #229, #93 ) ;
#44 = FACE_OUTER_BOUND ( 'NONE', #114, .T. ) ;
#45 = ORIENTED_EDGE ( 'NONE', *, *, #133, .T. ) ;
#46 = APPROVAL_STATUS ( 'not_yet_approved' ) ;
#47 = CC_DESIGN_APPROVAL ( #142, ( #213 ) ) ;
#48 = APPROVAL_ROLE ( '' ) ;
#49 = VECTOR ( 'NONE', #184, 1000.000000000000000 ) ;
#50 = EDGE_CURVE ( 'NONE', #168, #88, #135, .T. ) ;
#51 = CARTESIAN_POINT ( 'NONE',  ( 10.00000000000000200, -18.49999999999999600, 1.000000000000000000 ) ) ;
#52 =( GEOMETRIC_REPRESENTATION_CONTEXT ( 3 ) GLOBAL_UNCERTAINTY_ASSIGNED_CONTEXT ( ( #4 ) ) GLOBAL_UNIT_ASSIGNED_CONTEXT ( ( #30, #101, #207 ) ) REPRESENTATION_CONTEXT ( 'NONE', 'WORKASPACE' ) );
#53 = ORIENTED_EDGE ( 'NONE', *, *, #20, .T. ) ;
#54 = EDGE_CURVE ( 'NONE', #34, #41, #43, .T. ) ;
#55 = CARTESIAN_POINT ( 'NONE',  ( -10.00000000000000400, 18.50000000000000000, 1.000000000000000000 ) ) ;
#56 = PERSON_AND_ORGANIZATION ( #79, #155 ) ;
#57 = CARTESIAN_POINT ( 'NONE',  ( -10.00000000000000400, 18.50000000000000000, 1.000000000000000000 ) ) ;
#58 = AXIS2_PLACEMENT_3D ( 'NONE', #51, #218, #38 ) ;
#59 = LINE ( 'NONE', #166, #167 ) ;
#60 = CLOSED_SHELL ( 'NONE', ( #84, #197, #189, #217, #74, #15 ) ) ;
#61 = CC_DESIGN_SECURITY_CLASSIFICATION ( #213, ( #182 ) ) ;
#62 = APPROVAL ( #46, 'UNSPECIFIED' ) ;
#63 = VECTOR ( 'NONE', #219, 1000.000000000000000 ) ;
#64 = PRODUCT ( 'Web Model 46699', 'Web Model 46699', '', ( #225 ) ) ;
#65 = VECTOR ( 'NONE', #37, 1000.000000000000000 ) ;
#66 = ORIENTED_EDGE ( 'NONE', *, *, #188, .F. ) ;
#67 = PLANE ( 'NONE',  #149 ) ;
#68 = CALENDAR_DATE ( 2017, 31, 1 ) ;
#69 = LINE ( 'NONE', #186, #65 ) ;
#70 = ORIENTED_EDGE ( 'NONE', *, *, #54, .F. ) ;
#71 = CALENDAR_DATE ( 2017, 31, 1 ) ;
#72 = CARTESIAN_POINT ( 'NONE',  ( -9.999999999999998200, -18.49999999999999600, 0.0000000000000000000 ) ) ;
#73 = ORIENTED_EDGE ( 'NONE', *, *, #144, .F. ) ;
#74 = ADVANCED_FACE ( 'NONE', ( #160 ), #179, .T. ) ;
#75 = CC_DESIGN_PERSON_AND_ORGANIZATION_ASSIGNMENT ( #209, #158, ( #182 ) ) ;
#76 = FACE_OUTER_BOUND ( 'NONE', #171, .T. ) ;
#77 = DATE_AND_TIME ( #68, #126 ) ;
#78 = ORIENTED_EDGE ( 'NONE', *, *, #188, .T. ) ;
#79 = PERSON ( 'UNSPECIFIED', 'UNSPECIFIED', 'UNSPECIFIED', ('UNSPECIFIED'), ('UNSPECIFIED'), ('UNSPECIFIED') ) ;
#80 = EDGE_LOOP ( 'NONE', ( #137, #215, #181, #112 ) ) ;
#81 = AXIS2_PLACEMENT_3D ( 'NONE', #151, #128, #233 ) ;
#82 = DIRECTION ( 'NONE',  ( 0.0000000000000000000, 1.000000000000000000, 0.0000000000000000000 ) ) ;
#83 = ORIENTED_EDGE ( 'NONE', *, *, #144, .T. ) ;
#84 = ADVANCED_FACE ( 'NONE', ( #76 ), #237, .F. ) ;
#85 = CARTESIAN_POINT ( 'NONE',  ( -9.999999999999998200, -18.49999999999999600, 1.000000000000000000 ) ) ;
#86 = VECTOR ( 'NONE', #185, 1000.000000000000000 ) ;
#87 = CARTESIAN_POINT ( 'NONE',  ( -10.00000000000000400, 18.50000000000000000, 1.000000000000000000 ) ) ;
#88 = VERTEX_POINT ( 'NONE', #162 ) ;
#89 = PRODUCT_DEFINITION ( 'UNKNOWN', '', #182, #22 ) ;
#90 = AXIS2_PLACEMENT_3D ( 'NONE', #195, #35, #123 ) ;
#91 = DIRECTION ( 'NONE',  ( 1.000000000000000000, 0.0000000000000000000, 0.0000000000000000000 ) ) ;
#92 = ADVANCED_BREP_SHAPE_REPRESENTATION ( 'Web Model 46699', ( #106, #173 ), #52 ) ;
#93 = VECTOR ( 'NONE', #121, 1000.000000000000000 ) ;
#94 = VERTEX_POINT ( 'NONE', #40 ) ;
#95 = CC_DESIGN_PERSON_AND_ORGANIZATION_ASSIGNMENT ( #17, #177, ( #182 ) ) ;
#96 = CALENDAR_DATE ( 2017, 31, 1 ) ;
#97 = AXIS2_PLACEMENT_3D ( 'NONE', #19, #18, #234 ) ;
#98 = COORDINATED_UNIVERSAL_TIME_OFFSET ( 5, 0, .BEHIND. ) ;
#99 = EDGE_LOOP ( 'NONE', ( #175, #73, #66, #24 ) ) ;
#100 = CC_DESIGN_APPROVAL ( #220, ( #89 ) ) ;
#101 =( NAMED_UNIT ( * ) PLANE_ANGLE_UNIT ( ) SI_UNIT ( $, .RADIAN. ) );
#102 = PERSON_AND_ORGANIZATION ( #79, #155 ) ;
#103 = CARTESIAN_POINT ( 'NONE',  ( 10.00000000000000200, -18.49999999999999600, 1.000000000000000000 ) ) ;
#104 = CC_DESIGN_DATE_AND_TIME_ASSIGNMENT ( #28, #140, ( #213 ) ) ;
#105 = LINE ( 'NONE', #146, #63 ) ;
#106 = MANIFOLD_SOLID_BREP ( 'Extrude1', #60 ) ;
#107 = VERTEX_POINT ( 'NONE', #147 ) ;
#108 = CARTESIAN_POINT ( 'NONE',  ( 10.00000000000000200, -18.49999999999999600, 1.000000000000000000 ) ) ;
#109 = CARTESIAN_POINT ( 'NONE',  ( -10.00000000000000400, 18.50000000000000000, 1.000000000000000000 ) ) ;
#110 = EDGE_CURVE ( 'NONE', #161, #34, #59, .T. ) ;
#111 = LINE ( 'NONE', #216, #200 ) ;
#112 = ORIENTED_EDGE ( 'NONE', *, *, #196, .F. ) ;
#113 = APPROVAL_PERSON_ORGANIZATION ( #23, #62, #139 ) ;
#114 = EDGE_LOOP ( 'NONE', ( #231, #206, #7, #83 ) ) ;
#115 = DIRECTION ( 'NONE',  ( 0.0000000000000000000, -0.0000000000000000000, 1.000000000000000000 ) ) ;
#116 = DIRECTION ( 'NONE',  ( 1.000000000000000000, 0.0000000000000000000, 0.0000000000000000000 ) ) ;
#117 = COORDINATED_UNIVERSAL_TIME_OFFSET ( 5, 0, .BEHIND. ) ;
#118 = APPLICATION_PROTOCOL_DEFINITION ( 'international standard', 'config_control_design', 1994, #227 ) ;
#119 = ORIENTED_EDGE ( 'NONE', *, *, #11, .T. ) ;
#120 = APPROVAL_STATUS ( 'not_yet_approved' ) ;
#121 = DIRECTION ( 'NONE',  ( -0.0000000000000000000, -0.0000000000000000000, -1.000000000000000000 ) ) ;
#122 = LINE ( 'NONE', #145, #49 ) ;
#123 = DIRECTION ( 'NONE',  ( 1.000000000000000000, 0.0000000000000000000, 0.0000000000000000000 ) ) ;
#124 = DIRECTION ( 'NONE',  ( -0.0000000000000000000, -0.0000000000000000000, -1.000000000000000000 ) ) ;
#125 = CARTESIAN_POINT ( 'NONE',  ( 9.999999999999996400, 18.50000000000000000, 0.0000000000000000000 ) ) ;
#126 = LOCAL_TIME ( 10, 19, 37.00000000000000000, #176 ) ;
#127 = PERSON_AND_ORGANIZATION ( #79, #155 ) ;
#128 = DIRECTION ( 'NONE',  ( -1.000000000000000000, -1.406532548089303500E-016, 0.0000000000000000000 ) ) ;
#129 = PERSON_AND_ORGANIZATION ( #79, #155 ) ;
#130 = PLANE ( 'NONE',  #136 ) ;
#131 = ORIENTED_EDGE ( 'NONE', *, *, #11, .F. ) ;
#132 = VECTOR ( 'NONE', #198, 1000.000000000000000 ) ;
#133 = EDGE_CURVE ( 'NONE', #39, #41, #69, .T. ) ;
#134 = SHAPE_DEFINITION_REPRESENTATION ( #154, #92 ) ;
#135 = LINE ( 'NONE', #87, #132 ) ;
#136 = AXIS2_PLACEMENT_3D ( 'NONE', #57, #16, #164 ) ;
#137 = ORIENTED_EDGE ( 'NONE', *, *, #133, .F. ) ;
#138 = PERSON_AND_ORGANIZATION_ROLE ( 'creator' ) ;
#139 = APPROVAL_ROLE ( '' ) ;
#140 = DATE_TIME_ROLE ( 'classification_date' ) ;
#141 = CARTESIAN_POINT ( 'NONE',  ( -10.00000000000000400, 18.50000000000000000, 0.0000000000000000000 ) ) ;
#142 = APPROVAL ( #31, 'UNSPECIFIED' ) ;
#143 = APPROVAL_DATE_TIME ( #165, #142 ) ;
#144 = EDGE_CURVE ( 'NONE', #168, #107, #187, .T. ) ;
#145 = CARTESIAN_POINT ( 'NONE',  ( -9.999999999999998200, -18.49999999999999600, 1.000000000000000000 ) ) ;
#146 = CARTESIAN_POINT ( 'NONE',  ( -10.00000000000000400, 18.50000000000000000, 0.0000000000000000000 ) ) ;
#147 = CARTESIAN_POINT ( 'NONE',  ( -10.00000000000000400, 18.50000000000000000, 0.0000000000000000000 ) ) ;
#148 = LOCAL_TIME ( 10, 19, 37.00000000000000000, #194 ) ;
#149 = AXIS2_PLACEMENT_3D ( 'NONE', #224, #82, #115 ) ;
#150 = DIRECTION ( 'NONE',  ( -1.000000000000000000, -0.0000000000000000000, -0.0000000000000000000 ) ) ;
#151 = CARTESIAN_POINT ( 'NONE',  ( 9.999999999999996400, 18.50000000000000000, 1.000000000000000000 ) ) ;
#152 = ORIENTED_EDGE ( 'NONE', *, *, #110, .T. ) ;
#153 = CC_DESIGN_PERSON_AND_ORGANIZATION_ASSIGNMENT ( #170, #9, ( #213 ) ) ;
#154 = PRODUCT_DEFINITION_SHAPE ( 'NONE', 'NONE',  #89 ) ;
#155 = ORGANIZATION ( 'UNSPECIFIED', 'UNSPECIFIED', '' ) ;
#156 = CC_DESIGN_DATE_AND_TIME_ASSIGNMENT ( #163, #157, ( #89 ) ) ;
#157 = DATE_TIME_ROLE ( 'creation_date' ) ;
#158 = PERSON_AND_ORGANIZATION_ROLE ( 'design_supplier' ) ;
#159 = APPROVAL_ROLE ( '' ) ;
#160 = FACE_OUTER_BOUND ( 'NONE', #1, .T. ) ;
#161 = VERTEX_POINT ( 'NONE', #108 ) ;
#162 = CARTESIAN_POINT ( 'NONE',  ( -9.999999999999998200, -18.49999999999999600, 1.000000000000000000 ) ) ;
#163 = DATE_AND_TIME ( #71, #202 ) ;
#164 = DIRECTION ( 'NONE',  ( 0.0000000000000000000, -0.0000000000000000000, -1.000000000000000000 ) ) ;
#165 = DATE_AND_TIME ( #192, #204 ) ;
#166 = CARTESIAN_POINT ( 'NONE',  ( 9.999999999999996400, 18.50000000000000000, 1.000000000000000000 ) ) ;
#167 = VECTOR ( 'NONE', #199, 1000.000000000000000 ) ;
#168 = VERTEX_POINT ( 'NONE', #109 ) ;
#169 = EDGE_CURVE ( 'NONE', #94, #39, #223, .T. ) ;
#170 = PERSON_AND_ORGANIZATION ( #79, #155 ) ;
#171 = EDGE_LOOP ( 'NONE', ( #45, #70, #210, #119 ) ) ;
#172 = PRODUCT_RELATED_PRODUCT_CATEGORY ( 'detail', '', ( #64 ) ) ;
#173 = AXIS2_PLACEMENT_3D ( 'NONE', #226, #193, #116 ) ;
#174 = LINE ( 'NONE', #103, #230 ) ;
#175 = ORIENTED_EDGE ( 'NONE', *, *, #196, .T. ) ;
#176 = COORDINATED_UNIVERSAL_TIME_OFFSET ( 5, 0, .BEHIND. ) ;
#177 = PERSON_AND_ORGANIZATION_ROLE ( 'creator' ) ;
#178 = SECURITY_CLASSIFICATION_LEVEL ( 'unclassified' ) ;
#179 = PLANE ( 'NONE',  #58 ) ;
#180 = APPROVAL_DATE_TIME ( #235, #220 ) ;
#181 = ORIENTED_EDGE ( 'NONE', *, *, #42, .F. ) ;
#182 = PRODUCT_DEFINITION_FORMATION_WITH_SPECIFIED_SOURCE ( 'ANY', '', #64, .NOT_KNOWN. ) ;
#183 = PLANE ( 'NONE',  #90 ) ;
#184 = DIRECTION ( 'NONE',  ( 1.000000000000000000, 0.0000000000000000000, 0.0000000000000000000 ) ) ;
#185 = DIRECTION ( 'NONE',  ( -0.0000000000000000000, -0.0000000000000000000, -1.000000000000000000 ) ) ;
#186 = CARTESIAN_POINT ( 'NONE',  ( 9.999999999999996400, 18.50000000000000000, 0.0000000000000000000 ) ) ;
#187 = LINE ( 'NONE', #55, #86 ) ;
#188 = EDGE_CURVE ( 'NONE', #34, #168, #111, .T. ) ;
#189 = ADVANCED_FACE ( 'NONE', ( #44 ), #236, .F. ) ;
#190 = EDGE_LOOP ( 'NONE', ( #26, #131, #29, #21 ) ) ;
#191 = FACE_OUTER_BOUND ( 'NONE', #190, .T. ) ;
#192 = CALENDAR_DATE ( 2017, 31, 1 ) ;
#193 = DIRECTION ( 'NONE',  ( 0.0000000000000000000, 0.0000000000000000000, 1.000000000000000000 ) ) ;
#194 = COORDINATED_UNIVERSAL_TIME_OFFSET ( 5, 0, .BEHIND. ) ;
#195 = CARTESIAN_POINT ( 'NONE',  ( 10.00000000000000200, -18.49999999999999600, 0.0000000000000000000 ) ) ;
#196 = EDGE_CURVE ( 'NONE', #41, #107, #105, .T. ) ;
#197 = ADVANCED_FACE ( 'NONE', ( #6 ), #130, .F. ) ;
#198 = DIRECTION ( 'NONE',  ( 1.406532548089303500E-016, -1.000000000000000000, 0.0000000000000000000 ) ) ;
#199 = DIRECTION ( 'NONE',  ( -1.406532548089303500E-016, 1.000000000000000000, -0.0000000000000000000 ) ) ;
#200 = VECTOR ( 'NONE', #150, 1000.000000000000000 ) ;
#201 = APPROVAL_PERSON_ORGANIZATION ( #127, #142, #159 ) ;
#202 = LOCAL_TIME ( 10, 19, 37.00000000000000000, #33 ) ;
#203 = CC_DESIGN_PERSON_AND_ORGANIZATION_ASSIGNMENT ( #102, #8, ( #64 ) ) ;
#204 = LOCAL_TIME ( 10, 19, 37.00000000000000000, #98 ) ;
#205 = VECTOR ( 'NONE', #212, 1000.000000000000000 ) ;
#206 = ORIENTED_EDGE ( 'NONE', *, *, #2, .F. ) ;
#207 =( NAMED_UNIT ( * ) SI_UNIT ( $, .STERADIAN. ) SOLID_ANGLE_UNIT ( ) );
#208 = APPLICATION_PROTOCOL_DEFINITION ( 'international standard', 'config_control_design', 1994, #27 ) ;
#209 = PERSON_AND_ORGANIZATION ( #79, #155 ) ;
#210 = ORIENTED_EDGE ( 'NONE', *, *, #110, .F. ) ;
#211 = CARTESIAN_POINT ( 'NONE',  ( 9.999999999999996400, 18.50000000000000000, 1.000000000000000000 ) ) ;
#212 = DIRECTION ( 'NONE',  ( -0.0000000000000000000, -0.0000000000000000000, -1.000000000000000000 ) ) ;
#213 = SECURITY_CLASSIFICATION ( '', '', #178 ) ;
#214 = APPROVAL_DATE_TIME ( #77, #62 ) ;
#215 = ORIENTED_EDGE ( 'NONE', *, *, #169, .F. ) ;
#216 = CARTESIAN_POINT ( 'NONE',  ( -10.00000000000000400, 18.50000000000000000, 1.000000000000000000 ) ) ;
#217 = ADVANCED_FACE ( 'NONE', ( #191 ), #67, .F. ) ;
#218 = DIRECTION ( 'NONE',  ( -0.0000000000000000000, 0.0000000000000000000, 1.000000000000000000 ) ) ;
#219 = DIRECTION ( 'NONE',  ( -1.000000000000000000, -0.0000000000000000000, -0.0000000000000000000 ) ) ;
#220 = APPROVAL ( #120, 'UNSPECIFIED' ) ;
#221 = VECTOR ( 'NONE', #91, 1000.000000000000000 ) ;
#222 = CALENDAR_DATE ( 2017, 31, 1 ) ;
#223 = LINE ( 'NONE', #72, #221 ) ;
#224 = CARTESIAN_POINT ( 'NONE',  ( -9.999999999999998200, -18.49999999999999600, 1.000000000000000000 ) ) ;
#225 = MECHANICAL_CONTEXT ( 'NONE', #27, 'mechanical' ) ;
#226 = CARTESIAN_POINT ( 'NONE',  ( 0.0000000000000000000, 0.0000000000000000000, 0.0000000000000000000 ) ) ;
#227 = APPLICATION_CONTEXT ( 'configuration controlled 3d designs of mechanical parts and assemblies' ) ;
#228 = VECTOR ( 'NONE', #32, 1000.000000000000000 ) ;
#229 = CARTESIAN_POINT ( 'NONE',  ( 9.999999999999996400, 18.50000000000000000, 1.000000000000000000 ) ) ;
#230 = VECTOR ( 'NONE', #124, 1000.000000000000000 ) ;
#231 = ORIENTED_EDGE ( 'NONE', *, *, #42, .T. ) ;
#232 = CC_DESIGN_APPROVAL ( #62, ( #182 ) ) ;
#233 = DIRECTION ( 'NONE',  ( 1.406532548089303500E-016, -1.000000000000000000, 0.0000000000000000000 ) ) ;
#234 = DIRECTION ( 'NONE',  ( -1.406532548089303500E-016, 1.000000000000000000, 0.0000000000000000000 ) ) ;
#235 = DATE_AND_TIME ( #96, #148 ) ;
#236 = PLANE ( 'NONE',  #97 ) ;
#237 = PLANE ( 'NONE',  #81 ) ;
ENDSEC;
END-ISO-10303-21;
