ISO-10303-21;
HEADER;
FILE_DESCRIPTION (( 'STEP AP203' ),
    '1' );
FILE_NAME ('Web Model 22848_22854.step',
    '2022-06-22T12:59:01',
    ( 'WC' ),
    ( 'Windows Central' ),
    'SwSTEP 2.0',
    'SolidWorks 2021',
    '' );
FILE_SCHEMA (( 'CONFIG_CONTROL_DESIGN' ));
ENDSEC;

DATA;
#1 = APPROVAL_ROLE ( '' ) ;
#2 = ORIENTED_EDGE ( 'NONE', *, *, #118, .T. ) ;
#3 = AXIS2_PLACEMENT_3D ( 'NONE', #62, #108, #136 ) ;
#4 = EDGE_CURVE ( 'NONE', #124, #76, #164, .T. ) ;
#5 = CC_DESIGN_DATE_AND_TIME_ASSIGNMENT ( #13, #114, ( #151 ) ) ;
#6 = CC_DESIGN_APPROVAL ( #141, ( #103 ) ) ;
#7 = DIRECTION ( 'NONE',  ( 1.000000000000000000, 0.000000000000000000, 0.000000000000000000 ) ) ;
#8 = EDGE_LOOP ( 'NONE', ( #2, #143 ) ) ;
#9 = CALENDAR_DATE ( 2022, 22, 6 ) ;
#10 =( NAMED_UNIT ( * ) SI_UNIT ( $, .STERADIAN. ) SOLID_ANGLE_UNIT ( ) );
#11 = DIRECTION ( 'NONE',  ( -0.000000000000000000, -0.000000000000000000, -1.000000000000000000 ) ) ;
#12 = DIRECTION ( 'NONE',  ( -1.000000000000000000, 0.000000000000000000, 0.000000000000000000 ) ) ;
#13 = DATE_AND_TIME ( #81, #33 ) ;
#14 = DIRECTION ( 'NONE',  ( -0.000000000000000000, -0.000000000000000000, -1.000000000000000000 ) ) ;
#15 = DATE_AND_TIME ( #55, #122 ) ;
#16 = PLANE ( 'NONE',  #3 ) ;
#17 = SHAPE_DEFINITION_REPRESENTATION ( #155, #134 ) ;
#18 = PERSON_AND_ORGANIZATION ( #69, #163 ) ;
#19 = AXIS2_PLACEMENT_3D ( 'NONE', #41, #75, #90 ) ;
#20 = DIRECTION ( 'NONE',  ( 1.000000000000000000, 0.000000000000000000, 0.000000000000000000 ) ) ;
#21 = CARTESIAN_POINT ( 'NONE',  ( 20.00000000000000000, 2.449293598294706513E-15, 0.000000000000000000 ) ) ;
#22 =( GEOMETRIC_REPRESENTATION_CONTEXT ( 3 ) GLOBAL_UNCERTAINTY_ASSIGNED_CONTEXT ( ( #142 ) ) GLOBAL_UNIT_ASSIGNED_CONTEXT ( ( #96, #144, #10 ) ) REPRESENTATION_CONTEXT ( 'NONE', 'WORKASPACE' ) );
#23 = EDGE_LOOP ( 'NONE', ( #152, #40, #43, #73 ) ) ;
#24 = PERSON_AND_ORGANIZATION_ROLE ( 'design_owner' ) ;
#25 = AXIS2_PLACEMENT_3D ( 'NONE', #148, #54, #65 ) ;
#26 = VECTOR ( 'NONE', #11, 1000.000000000000000 ) ;
#27 = CARTESIAN_POINT ( 'NONE',  ( 0.000000000000000000, 0.000000000000000000, 1.100000000000000089 ) ) ;
#28 = APPROVAL_ROLE ( '' ) ;
#29 = COORDINATED_UNIVERSAL_TIME_OFFSET ( 5, 0, .BEHIND. ) ;
#30 = PERSON_AND_ORGANIZATION ( #69, #163 ) ;
#31 = CC_DESIGN_PERSON_AND_ORGANIZATION_ASSIGNMENT ( #172, #100, ( #151 ) ) ;
#32 = APPROVAL_DATE_TIME ( #93, #141 ) ;
#33 = LOCAL_TIME ( 8, 59, 1.000000000000000000, #29 ) ;
#34 = CLOSED_SHELL ( 'NONE', ( #157, #71, #35, #169 ) ) ;
#35 = ADVANCED_FACE ( 'NONE', ( #168 ), #16, .T. ) ;
#36 = LOCAL_TIME ( 8, 59, 1.000000000000000000, #91 ) ;
#37 = AXIS2_PLACEMENT_3D ( 'NONE', #95, #98, #87 ) ;
#38 = CYLINDRICAL_SURFACE ( 'NONE', #57, 20.00000000000000000 ) ;
#39 = FACE_OUTER_BOUND ( 'NONE', #47, .T. ) ;
#40 = ORIENTED_EDGE ( 'NONE', *, *, #66, .T. ) ;
#41 = CARTESIAN_POINT ( 'NONE',  ( 0.000000000000000000, 0.000000000000000000, 0.000000000000000000 ) ) ;
#42 = MANIFOLD_SOLID_BREP ( 'Boss-Extrude1', #34 ) ;
#43 = ORIENTED_EDGE ( 'NONE', *, *, #49, .T. ) ;
#44 = FACE_OUTER_BOUND ( 'NONE', #51, .T. ) ;
#45 = DIRECTION ( 'NONE',  ( -0.000000000000000000, -0.000000000000000000, -1.000000000000000000 ) ) ;
#46 = CIRCLE ( 'NONE', #137, 20.00000000000000000 ) ;
#47 = EDGE_LOOP ( 'NONE', ( #107, #158 ) ) ;
#48 = PERSON_AND_ORGANIZATION_ROLE ( 'creator' ) ;
#49 = EDGE_CURVE ( 'NONE', #113, #76, #106, .T. ) ;
#50 = APPLICATION_PROTOCOL_DEFINITION ( 'international standard', 'config_control_design', 1994, #79 ) ;
#51 = EDGE_LOOP ( 'NONE', ( #102, #170, #58, #64 ) ) ;
#52 = CARTESIAN_POINT ( 'NONE',  ( 0.000000000000000000, 0.000000000000000000, 1.100000000000000089 ) ) ;
#53 = APPROVAL_STATUS ( 'not_yet_approved' ) ;
#54 = DIRECTION ( 'NONE',  ( 0.000000000000000000, 0.000000000000000000, 1.000000000000000000 ) ) ;
#55 = CALENDAR_DATE ( 2022, 22, 6 ) ;
#56 = APPROVAL_PERSON_ORGANIZATION ( #67, #174, #28 ) ;
#57 = AXIS2_PLACEMENT_3D ( 'NONE', #121, #123, #125 ) ;
#58 = ORIENTED_EDGE ( 'NONE', *, *, #4, .T. ) ;
#59 = APPROVAL_ROLE ( '' ) ;
#60 = CC_DESIGN_APPROVAL ( #174, ( #151 ) ) ;
#61 = CIRCLE ( 'NONE', #145, 20.00000000000000000 ) ;
#62 = CARTESIAN_POINT ( 'NONE',  ( 0.000000000000000000, 0.000000000000000000, 1.100000000000000089 ) ) ;
#63 = CARTESIAN_POINT ( 'NONE',  ( 0.000000000000000000, 0.000000000000000000, 1.100000000000000089 ) ) ;
#64 = ORIENTED_EDGE ( 'NONE', *, *, #138, .T. ) ;
#65 = DIRECTION ( 'NONE',  ( 1.000000000000000000, 0.000000000000000000, 0.000000000000000000 ) ) ;
#66 = EDGE_CURVE ( 'NONE', #110, #113, #119, .T. ) ;
#67 = PERSON_AND_ORGANIZATION ( #69, #163 ) ;
#68 = APPROVAL_DATE_TIME ( #128, #174 ) ;
#69 = PERSON ( 'UNSPECIFIED', 'UNSPECIFIED', 'UNSPECIFIED', ('UNSPECIFIED'), ('UNSPECIFIED'), ('UNSPECIFIED') ) ;
#70 = CARTESIAN_POINT ( 'NONE',  ( -20.00000000000000000, 0.000000000000000000, 1.100000000000000089 ) ) ;
#71 = ADVANCED_FACE ( 'NONE', ( #44 ), #38, .T. ) ;
#72 = PERSON_AND_ORGANIZATION ( #69, #163 ) ;
#73 = ORIENTED_EDGE ( 'NONE', *, *, #4, .F. ) ;
#74 = CC_DESIGN_PERSON_AND_ORGANIZATION_ASSIGNMENT ( #18, #104, ( #103 ) ) ;
#75 = DIRECTION ( 'NONE',  ( 0.000000000000000000, 0.000000000000000000, 1.000000000000000000 ) ) ;
#76 = VERTEX_POINT ( 'NONE', #156 ) ;
#77 = APPLICATION_PROTOCOL_DEFINITION ( 'international standard', 'config_control_design', 1994, #167 ) ;
#78 = CYLINDRICAL_SURFACE ( 'NONE', #116, 20.00000000000000000 ) ;
#79 = APPLICATION_CONTEXT ( 'configuration controlled 3d designs of mechanical parts and assemblies' ) ;
#80 = COORDINATED_UNIVERSAL_TIME_OFFSET ( 5, 0, .BEHIND. ) ;
#81 = CALENDAR_DATE ( 2022, 22, 6 ) ;
#82 = CALENDAR_DATE ( 2022, 22, 6 ) ;
#83 = COORDINATED_UNIVERSAL_TIME_OFFSET ( 5, 0, .BEHIND. ) ;
#84 = PERSON_AND_ORGANIZATION_ROLE ( 'classification_officer' ) ;
#85 = LOCAL_TIME ( 8, 59, 1.000000000000000000, #80 ) ;
#86 = APPROVAL_PERSON_ORGANIZATION ( #101, #141, #59 ) ;
#87 = DIRECTION ( 'NONE',  ( 1.000000000000000000, 0.000000000000000000, -0.000000000000000000 ) ) ;
#88 = EDGE_CURVE ( 'NONE', #110, #124, #61, .T. ) ;
#89 = APPROVAL ( #133, 'UNSPECIFIED' ) ;
#90 = DIRECTION ( 'NONE',  ( 1.000000000000000000, 0.000000000000000000, 0.000000000000000000 ) ) ;
#91 = COORDINATED_UNIVERSAL_TIME_OFFSET ( 5, 0, .BEHIND. ) ;
#92 = APPROVAL_STATUS ( 'not_yet_approved' ) ;
#93 = DATE_AND_TIME ( #153, #147 ) ;
#94 = CIRCLE ( 'NONE', #25, 20.00000000000000000 ) ;
#95 = CARTESIAN_POINT ( 'NONE',  ( 0.000000000000000000, 0.000000000000000000, 0.000000000000000000 ) ) ;
#96 =( LENGTH_UNIT ( ) NAMED_UNIT ( * ) SI_UNIT ( .MILLI., .METRE. ) );
#97 = CC_DESIGN_PERSON_AND_ORGANIZATION_ASSIGNMENT ( #72, #48, ( #103 ) ) ;
#98 = DIRECTION ( 'NONE',  ( 0.000000000000000000, 0.000000000000000000, 1.000000000000000000 ) ) ;
#99 = CARTESIAN_POINT ( 'NONE',  ( -20.00000000000000000, 0.000000000000000000, 1.100000000000000089 ) ) ;
#100 = PERSON_AND_ORGANIZATION_ROLE ( 'creator' ) ;
#101 = PERSON_AND_ORGANIZATION ( #69, #163 ) ;
#102 = ORIENTED_EDGE ( 'NONE', *, *, #66, .F. ) ;
#103 = PRODUCT_DEFINITION_FORMATION_WITH_SPECIFIED_SOURCE ( 'ANY', '', #120, .NOT_KNOWN. ) ;
#104 = PERSON_AND_ORGANIZATION_ROLE ( 'design_supplier' ) ;
#105 = DIRECTION ( 'NONE',  ( 0.000000000000000000, 0.000000000000000000, 1.000000000000000000 ) ) ;
#106 = CIRCLE ( 'NONE', #150, 20.00000000000000000 ) ;
#107 = ORIENTED_EDGE ( 'NONE', *, *, #138, .F. ) ;
#108 = DIRECTION ( 'NONE',  ( 0.000000000000000000, 0.000000000000000000, 1.000000000000000000 ) ) ;
#109 = APPROVAL_PERSON_ORGANIZATION ( #149, #89, #1 ) ;
#110 = VERTEX_POINT ( 'NONE', #160 ) ;
#111 = CARTESIAN_POINT ( 'NONE',  ( 0.000000000000000000, 0.000000000000000000, 0.000000000000000000 ) ) ;
#112 = PLANE ( 'NONE',  #37 ) ;
#113 = VERTEX_POINT ( 'NONE', #21 ) ;
#114 = DATE_TIME_ROLE ( 'creation_date' ) ;
#115 = CC_DESIGN_DATE_AND_TIME_ASSIGNMENT ( #130, #166, ( #173 ) ) ;
#116 = AXIS2_PLACEMENT_3D ( 'NONE', #63, #45, #12 ) ;
#117 = CC_DESIGN_PERSON_AND_ORGANIZATION_ASSIGNMENT ( #146, #24, ( #120 ) ) ;
#118 = EDGE_CURVE ( 'NONE', #124, #110, #46, .T. ) ;
#119 = LINE ( 'NONE', #126, #26 ) ;
#120 = PRODUCT ( 'Web Model 22848_22854', 'Web Model 22848_22854', '', ( #159 ) ) ;
#121 = CARTESIAN_POINT ( 'NONE',  ( 0.000000000000000000, 0.000000000000000000, 1.100000000000000089 ) ) ;
#122 = LOCAL_TIME ( 8, 59, 1.000000000000000000, #131 ) ;
#123 = DIRECTION ( 'NONE',  ( -0.000000000000000000, -0.000000000000000000, -1.000000000000000000 ) ) ;
#124 = VERTEX_POINT ( 'NONE', #70 ) ;
#125 = DIRECTION ( 'NONE',  ( -1.000000000000000000, 0.000000000000000000, 0.000000000000000000 ) ) ;
#126 = CARTESIAN_POINT ( 'NONE',  ( 20.00000000000000000, 2.449293598294706513E-15, 1.100000000000000089 ) ) ;
#127 = DIRECTION ( 'NONE',  ( 0.000000000000000000, 0.000000000000000000, 1.000000000000000000 ) ) ;
#128 = DATE_AND_TIME ( #9, #85 ) ;
#129 = DESIGN_CONTEXT ( 'detailed design', #167, 'design' ) ;
#130 = DATE_AND_TIME ( #82, #36 ) ;
#131 = COORDINATED_UNIVERSAL_TIME_OFFSET ( 5, 0, .BEHIND. ) ;
#132 = APPROVAL_DATE_TIME ( #15, #89 ) ;
#133 = APPROVAL_STATUS ( 'not_yet_approved' ) ;
#134 = ADVANCED_BREP_SHAPE_REPRESENTATION ( 'Web Model 22848_22854', ( #42, #19 ), #22 ) ;
#135 = CC_DESIGN_SECURITY_CLASSIFICATION ( #173, ( #103 ) ) ;
#136 = DIRECTION ( 'NONE',  ( 1.000000000000000000, 0.000000000000000000, -0.000000000000000000 ) ) ;
#137 = AXIS2_PLACEMENT_3D ( 'NONE', #52, #127, #7 ) ;
#138 = EDGE_CURVE ( 'NONE', #76, #113, #94, .T. ) ;
#139 = PRODUCT_RELATED_PRODUCT_CATEGORY ( 'detail', '', ( #120 ) ) ;
#140 = VECTOR ( 'NONE', #14, 1000.000000000000000 ) ;
#141 = APPROVAL ( #92, 'UNSPECIFIED' ) ;
#142 = UNCERTAINTY_MEASURE_WITH_UNIT (LENGTH_MEASURE( 1.000000000000000082E-05 ), #96, 'distance_accuracy_value', 'NONE');
#143 = ORIENTED_EDGE ( 'NONE', *, *, #88, .T. ) ;
#144 =( NAMED_UNIT ( * ) PLANE_ANGLE_UNIT ( ) SI_UNIT ( $, .RADIAN. ) );
#145 = AXIS2_PLACEMENT_3D ( 'NONE', #27, #171, #161 ) ;
#146 = PERSON_AND_ORGANIZATION ( #69, #163 ) ;
#147 = LOCAL_TIME ( 8, 59, 1.000000000000000000, #83 ) ;
#148 = CARTESIAN_POINT ( 'NONE',  ( 0.000000000000000000, 0.000000000000000000, 0.000000000000000000 ) ) ;
#149 = PERSON_AND_ORGANIZATION ( #69, #163 ) ;
#150 = AXIS2_PLACEMENT_3D ( 'NONE', #111, #105, #20 ) ;
#151 = PRODUCT_DEFINITION ( 'UNKNOWN', '', #103, #129 ) ;
#152 = ORIENTED_EDGE ( 'NONE', *, *, #88, .F. ) ;
#153 = CALENDAR_DATE ( 2022, 22, 6 ) ;
#154 = CC_DESIGN_PERSON_AND_ORGANIZATION_ASSIGNMENT ( #30, #84, ( #173 ) ) ;
#155 = PRODUCT_DEFINITION_SHAPE ( 'NONE', 'NONE',  #151 ) ;
#156 = CARTESIAN_POINT ( 'NONE',  ( -20.00000000000000000, 0.000000000000000000, 0.000000000000000000 ) ) ;
#157 = ADVANCED_FACE ( 'NONE', ( #162 ), #78, .T. ) ;
#158 = ORIENTED_EDGE ( 'NONE', *, *, #49, .F. ) ;
#159 = MECHANICAL_CONTEXT ( 'NONE', #79, 'mechanical' ) ;
#160 = CARTESIAN_POINT ( 'NONE',  ( 20.00000000000000000, 2.449293598294706513E-15, 1.100000000000000089 ) ) ;
#161 = DIRECTION ( 'NONE',  ( 1.000000000000000000, 0.000000000000000000, 0.000000000000000000 ) ) ;
#162 = FACE_OUTER_BOUND ( 'NONE', #23, .T. ) ;
#163 = ORGANIZATION ( 'UNSPECIFIED', 'UNSPECIFIED', '' ) ;
#164 = LINE ( 'NONE', #99, #140 ) ;
#165 = CC_DESIGN_APPROVAL ( #89, ( #173 ) ) ;
#166 = DATE_TIME_ROLE ( 'classification_date' ) ;
#167 = APPLICATION_CONTEXT ( 'configuration controlled 3d designs of mechanical parts and assemblies' ) ;
#168 = FACE_OUTER_BOUND ( 'NONE', #8, .T. ) ;
#169 = ADVANCED_FACE ( 'NONE', ( #39 ), #112, .F. ) ;
#170 = ORIENTED_EDGE ( 'NONE', *, *, #118, .F. ) ;
#171 = DIRECTION ( 'NONE',  ( 0.000000000000000000, 0.000000000000000000, 1.000000000000000000 ) ) ;
#172 = PERSON_AND_ORGANIZATION ( #69, #163 ) ;
#173 = SECURITY_CLASSIFICATION ( '', '', #175 ) ;
#174 = APPROVAL ( #53, 'UNSPECIFIED' ) ;
#175 = SECURITY_CLASSIFICATION_LEVEL ( 'unclassified' ) ;
ENDSEC;
END-ISO-10303-21;
