ISO-10303-21;
HEADER;
FILE_DESCRIPTION (( 'STEP AP203' ),
    '1' );
FILE_NAME ('4324-E0W.STEP',
    '2008-10-13T14:48:52',
    ( 'Admin' ),
    ( 'Thorlabs, Inc.' ),
    'SwSTEP 2.0',
    'SolidWorks 2007',
    '' );
FILE_SCHEMA (( 'CONFIG_CONTROL_DESIGN' ));
ENDSEC;

DATA;
#1 = VERTEX_POINT ( 'NONE', #93 ) ;
#2 = EDGE_CURVE ( 'NONE', #58, #1, #92, .T. ) ;
#3 = VERTEX_POINT ( 'NONE', #86 ) ;
#4 = VERTEX_POINT ( 'NONE', #84 ) ;
#5 = VERTEX_POINT ( 'NONE', #90 ) ;
#6 = DIRECTION ( 'NONE',  ( 1.000000000000000000, 0.0000000000000000000, 0.0000000000000000000 ) ) ;
#7 = ORIENTED_EDGE ( 'NONE', *, *, #62, .T. ) ;
#8 = ORIENTED_EDGE ( 'NONE', *, *, #10, .F. ) ;
#9 = EDGE_CURVE ( 'NONE', #3, #66, #89, .T. ) ;
#10 = EDGE_CURVE ( 'NONE', #4, #15, #109, .T. ) ;
#11 = DIRECTION ( 'NONE',  ( 0.0000000000000000000, 0.0000000000000000000, 1.000000000000000000 ) ) ;
#12 = EDGE_CURVE ( 'NONE', #3, #5, #127, .T. ) ;
#13 = ORIENTED_EDGE ( 'NONE', *, *, #12, .F. ) ;
#14 = EDGE_CURVE ( 'NONE', #58, #15, #131, .T. ) ;
#15 = VERTEX_POINT ( 'NONE', #141 ) ;
#16 = DIRECTION ( 'NONE',  ( 0.0000000000000000000, 0.0000000000000000000, 1.000000000000000000 ) ) ;
#17 = EDGE_LOOP ( 'NONE', ( #37, #70, #56, #43 ) ) ;
#18 = ORIENTED_EDGE ( 'NONE', *, *, #24, .F. ) ;
#19 = DIRECTION ( 'NONE',  ( 1.000000000000000000, 0.0000000000000000000, 0.0000000000000000000 ) ) ;
#20 = CARTESIAN_POINT ( 'NONE',  ( 0.0000000000000000000, 0.0000000000000000000, -0.9970643078754393200 ) ) ;
#21 = AXIS2_PLACEMENT_3D ( 'NONE', #20, #11, #19 ) ;
#22 = ADVANCED_FACE ( 'NONE', ( #140 ), #135, .T. ) ;
#23 =( NAMED_UNIT ( * ) SI_UNIT ( $, .STERADIAN. ) SOLID_ANGLE_UNIT ( ) );
#24 = EDGE_CURVE ( 'NONE', #5, #4, #97, .T. ) ;
#25 = CC_DESIGN_PERSON_AND_ORGANIZATION_ASSIGNMENT ( #234, #233, ( #217 ) ) ;
#26 = ADVANCED_BREP_SHAPE_REPRESENTATION ( '4324-E0W', ( #77, #202 ), #27 ) ;
#27 =( GEOMETRIC_REPRESENTATION_CONTEXT ( 3 ) GLOBAL_UNCERTAINTY_ASSIGNED_CONTEXT ( ( #29 ) ) GLOBAL_UNIT_ASSIGNED_CONTEXT ( ( #185, #180, #23 ) ) REPRESENTATION_CONTEXT ( 'NONE', 'WORKASPACE' ) );
#28 = PERSON ( 'UNSPECIFIED', 'UNSPECIFIED', 'UNSPECIFIED', ('UNSPECIFIED'), ('UNSPECIFIED'), ('UNSPECIFIED') ) ;
#29 = UNCERTAINTY_MEASURE_WITH_UNIT (LENGTH_MEASURE( 1.000000000000000100E-005 ), #185, 'distance_accuracy_value', 'NONE');
#30 = PRODUCT ( '4324-E0W', '4324-E0W', '', ( #198 ) ) ;
#31 = PERSON_AND_ORGANIZATION_ROLE ( 'classification_officer' ) ;
#32 = CC_DESIGN_PERSON_AND_ORGANIZATION_ASSIGNMENT ( #34, #31, ( #33 ) ) ;
#33 = SECURITY_CLASSIFICATION ( '', '', #192 ) ;
#34 = PERSON_AND_ORGANIZATION ( #28, #168 ) ;
#35 = ADVANCED_FACE ( 'NONE', ( #98 ), #114, .T. ) ;
#36 = ORIENTED_EDGE ( 'NONE', *, *, #54, .T. ) ;
#37 = ORIENTED_EDGE ( 'NONE', *, *, #10, .T. ) ;
#38 = ADVANCED_FACE ( 'NONE', ( #115 ), #143, .T. ) ;
#39 = ORIENTED_EDGE ( 'NONE', *, *, #65, .F. ) ;
#40 = ORIENTED_EDGE ( 'NONE', *, *, #74, .T. ) ;
#41 = ORIENTED_EDGE ( 'NONE', *, *, #9, .F. ) ;
#42 = EDGE_CURVE ( 'NONE', #15, #57, #104, .T. ) ;
#43 = ORIENTED_EDGE ( 'NONE', *, *, #44, .F. ) ;
#44 = EDGE_CURVE ( 'NONE', #4, #83, #123, .T. ) ;
#45 = ORIENTED_EDGE ( 'NONE', *, *, #48, .F. ) ;
#46 = ORIENTED_EDGE ( 'NONE', *, *, #42, .F. ) ;
#47 = EDGE_LOOP ( 'NONE', ( #71, #72, #36, #55, #45, #46 ) ) ;
#48 = EDGE_CURVE ( 'NONE', #57, #5, #119, .T. ) ;
#49 = ORIENTED_EDGE ( 'NONE', *, *, #24, .T. ) ;
#50 = ORIENTED_EDGE ( 'NONE', *, *, #44, .T. ) ;
#51 = ADVANCED_FACE ( 'NONE', ( #155 ), #157, .T. ) ;
#52 = ORIENTED_EDGE ( 'NONE', *, *, #82, .F. ) ;
#53 = ORIENTED_EDGE ( 'NONE', *, *, #48, .T. ) ;
#54 = EDGE_CURVE ( 'NONE', #1, #3, #156, .T. ) ;
#55 = ORIENTED_EDGE ( 'NONE', *, *, #12, .T. ) ;
#56 = ORIENTED_EDGE ( 'NONE', *, *, #82, .T. ) ;
#57 = VERTEX_POINT ( 'NONE', #161 ) ;
#58 = VERTEX_POINT ( 'NONE', #160 ) ;
#59 = ADVANCED_FACE ( 'NONE', ( #159 ), #158, .T. ) ;
#60 = ORIENTED_EDGE ( 'NONE', *, *, #2, .F. ) ;
#61 = ORIENTED_EDGE ( 'NONE', *, *, #62, .F. ) ;
#62 = EDGE_CURVE ( 'NONE', #66, #58, #164, .T. ) ;
#63 = EDGE_LOOP ( 'NONE', ( #80, #7, #79, #8, #18, #13 ) ) ;
#64 = ORIENTED_EDGE ( 'NONE', *, *, #65, .T. ) ;
#65 = EDGE_CURVE ( 'NONE', #75, #1, #173, .T. ) ;
#66 = VERTEX_POINT ( 'NONE', #174 ) ;
#67 = ORIENTED_EDGE ( 'NONE', *, *, #54, .F. ) ;
#68 = CLOSED_SHELL ( 'NONE', ( #78, #59, #22, #51, #35, #38 ) ) ;
#69 = EDGE_LOOP ( 'NONE', ( #39, #40, #41, #67 ) ) ;
#70 = ORIENTED_EDGE ( 'NONE', *, *, #42, .T. ) ;
#71 = ORIENTED_EDGE ( 'NONE', *, *, #14, .F. ) ;
#72 = ORIENTED_EDGE ( 'NONE', *, *, #2, .T. ) ;
#73 = EDGE_LOOP ( 'NONE', ( #52, #53, #49, #50 ) ) ;
#74 = EDGE_CURVE ( 'NONE', #75, #66, #172, .T. ) ;
#75 = VERTEX_POINT ( 'NONE', #186 ) ;
#76 = EDGE_LOOP ( 'NONE', ( #81, #64, #60, #61 ) ) ;
#77 = MANIFOLD_SOLID_BREP ( 'NONE', #68 ) ;
#78 = ADVANCED_FACE ( 'NONE', ( #193 ), #188, .T. ) ;
#79 = ORIENTED_EDGE ( 'NONE', *, *, #14, .T. ) ;
#80 = ORIENTED_EDGE ( 'NONE', *, *, #9, .T. ) ;
#81 = ORIENTED_EDGE ( 'NONE', *, *, #74, .F. ) ;
#82 = EDGE_CURVE ( 'NONE', #57, #83, #194, .T. ) ;
#83 = VERTEX_POINT ( 'NONE', #195 ) ;
#84 = CARTESIAN_POINT ( 'NONE',  ( 0.0000000000000000000, 12.70000000000009700, 0.9970643078754393200 ) ) ;
#85 = DIRECTION ( 'NONE',  ( 1.000000000000000000, 0.0000000000000000000, 0.0000000000000000000 ) ) ;
#86 = CARTESIAN_POINT ( 'NONE',  ( 12.70000000000000100, 0.0000000000000000000, -0.9970643078754393200 ) ) ;
#87 = AXIS2_PLACEMENT_3D ( 'NONE', #91, #88, #85 ) ;
#88 = DIRECTION ( 'NONE',  ( 0.0000000000000000000, 0.0000000000000000000, 1.000000000000000000 ) ) ;
#89 = CIRCLE ( 'NONE', #21, 12.70000000000000100 ) ;
#90 = CARTESIAN_POINT ( 'NONE',  ( 12.69999999999999900, 0.0000000000000000000, 0.9970643078754393200 ) ) ;
#91 = CARTESIAN_POINT ( 'NONE',  ( 0.0000000000000000000, 0.0000000000000000000, -0.9970643078754393200 ) ) ;
#92 = CIRCLE ( 'NONE', #87, 12.70000000000000100 ) ;
#93 = CARTESIAN_POINT ( 'NONE',  ( -1.555301434917150500E-015, -12.70000000000009700, -0.9970643078754393200 ) ) ;
#94 = CARTESIAN_POINT ( 'NONE',  ( 0.0000000000000000000, 0.0000000000000000000, 1.500000000000000000 ) ) ;
#95 = DIRECTION ( 'NONE',  ( 1.000000000000000000, 0.0000000000000000000, 0.0000000000000000000 ) ) ;
#96 = CARTESIAN_POINT ( 'NONE',  ( 0.0000000000000000000, 0.0000000000000000000, 0.9970643078754393200 ) ) ;
#97 = CIRCLE ( 'NONE', #130, 12.69999999999999900 ) ;
#98 = FACE_OUTER_BOUND ( 'NONE', #47, .T. ) ;
#99 = DIRECTION ( 'NONE',  ( 0.0000000000000000000, 1.000000000000000000, 0.0000000000000000000 ) ) ;
#100 = DIRECTION ( 'NONE',  ( -1.000000000000000000, 0.0000000000000000000, 0.0000000000000000000 ) ) ;
#101 = CARTESIAN_POINT ( 'NONE',  ( 0.0000000000000000000, 0.0000000000000000000, -159.0999999999999900 ) ) ;
#102 = CARTESIAN_POINT ( 'NONE',  ( 0.0000000000000000000, 0.0000000000000000000, 0.9970643078754393200 ) ) ;
#103 = AXIS2_PLACEMENT_3D ( 'NONE', #102, #126, #125 ) ;
#104 = CIRCLE ( 'NONE', #103, 12.69999999999999900 ) ;
#105 = CARTESIAN_POINT ( 'NONE',  ( 0.0000000000000000000, 0.0000000000000000000, -159.0999999999999900 ) ) ;
#106 = DIRECTION ( 'NONE',  ( 0.0000000000000000000, 1.000000000000000000, 0.0000000000000000000 ) ) ;
#107 = DIRECTION ( 'NONE',  ( -1.000000000000000000, 0.0000000000000000000, 0.0000000000000000000 ) ) ;
#108 = AXIS2_PLACEMENT_3D ( 'NONE', #142, #107, #106 ) ;
#109 = CIRCLE ( 'NONE', #112, 12.69999999999999900 ) ;
#110 = VECTOR ( 'NONE', #134, 1000.000000000000000 ) ;
#111 = CARTESIAN_POINT ( 'NONE',  ( 12.69999999999999900, 0.0000000000000000000, 1.500000000000000000 ) ) ;
#112 = AXIS2_PLACEMENT_3D ( 'NONE', #96, #139, #132 ) ;
#113 = AXIS2_PLACEMENT_3D ( 'NONE', #94, #145, #144 ) ;
#114 = CYLINDRICAL_SURFACE ( 'NONE', #113, 12.69999999999999900 ) ;
#115 = FACE_OUTER_BOUND ( 'NONE', #69, .T. ) ;
#116 = DIRECTION ( 'NONE',  ( 1.000000000000000000, 0.0000000000000000000, 0.0000000000000000000 ) ) ;
#117 = DIRECTION ( 'NONE',  ( 0.0000000000000000000, 0.0000000000000000000, 1.000000000000000000 ) ) ;
#118 = AXIS2_PLACEMENT_3D ( 'NONE', #124, #117, #116 ) ;
#119 = CIRCLE ( 'NONE', #118, 12.69999999999999900 ) ;
#120 = DIRECTION ( 'NONE',  ( 0.0000000000000000000, 0.0000000000000000000, -1.000000000000000000 ) ) ;
#121 = DIRECTION ( 'NONE',  ( 1.000000000000000000, 0.0000000000000000000, 0.0000000000000000000 ) ) ;
#122 = AXIS2_PLACEMENT_3D ( 'NONE', #105, #121, #120 ) ;
#123 = CIRCLE ( 'NONE', #122, 160.5999999999999900 ) ;
#124 = CARTESIAN_POINT ( 'NONE',  ( 0.0000000000000000000, 0.0000000000000000000, 0.9970643078754393200 ) ) ;
#125 = DIRECTION ( 'NONE',  ( 1.000000000000000000, 0.0000000000000000000, 0.0000000000000000000 ) ) ;
#126 = DIRECTION ( 'NONE',  ( 0.0000000000000000000, 0.0000000000000000000, 1.000000000000000000 ) ) ;
#127 = LINE ( 'NONE', #111, #110 ) ;
#128 = DIRECTION ( 'NONE',  ( 0.0000000000000000000, 0.0000000000000000000, 1.000000000000000000 ) ) ;
#129 = CARTESIAN_POINT ( 'NONE',  ( 0.0000000000000000000, 0.0000000000000000000, 0.9970643078754393200 ) ) ;
#130 = AXIS2_PLACEMENT_3D ( 'NONE', #129, #128, #95 ) ;
#131 = LINE ( 'NONE', #138, #137 ) ;
#132 = DIRECTION ( 'NONE',  ( 1.000000000000000000, 0.0000000000000000000, 0.0000000000000000000 ) ) ;
#133 = AXIS2_PLACEMENT_3D ( 'NONE', #101, #100, #99 ) ;
#134 = DIRECTION ( 'NONE',  ( 0.0000000000000000000, 0.0000000000000000000, 1.000000000000000000 ) ) ;
#135 = SPHERICAL_SURFACE ( 'NONE', #133, 160.6000000000000200 ) ;
#136 = DIRECTION ( 'NONE',  ( 0.0000000000000000000, 0.0000000000000000000, 1.000000000000000000 ) ) ;
#137 = VECTOR ( 'NONE', #136, 1000.000000000000000 ) ;
#138 = CARTESIAN_POINT ( 'NONE',  ( -12.69999999999999900, 1.555301434917138400E-015, 1.500000000000000000 ) ) ;
#139 = DIRECTION ( 'NONE',  ( 0.0000000000000000000, 0.0000000000000000000, 1.000000000000000000 ) ) ;
#140 = FACE_OUTER_BOUND ( 'NONE', #17, .T. ) ;
#141 = CARTESIAN_POINT ( 'NONE',  ( -12.69999999999999900, 1.555301434917138400E-015, 0.9970643078754393200 ) ) ;
#142 = CARTESIAN_POINT ( 'NONE',  ( 0.0000000000000000000, 0.0000000000000000000, 159.0999999999999900 ) ) ;
#143 = SPHERICAL_SURFACE ( 'NONE', #108, 160.6000000000000200 ) ;
#144 = DIRECTION ( 'NONE',  ( 1.000000000000000000, 0.0000000000000000000, 0.0000000000000000000 ) ) ;
#145 = DIRECTION ( 'NONE',  ( 0.0000000000000000000, 0.0000000000000000000, 1.000000000000000000 ) ) ;
#146 = DIRECTION ( 'NONE',  ( 1.000000000000000000, 0.0000000000000000000, 0.0000000000000000000 ) ) ;
#147 = DIRECTION ( 'NONE',  ( 0.0000000000000000000, 0.0000000000000000000, 1.000000000000000000 ) ) ;
#148 = CARTESIAN_POINT ( 'NONE',  ( 0.0000000000000000000, 0.0000000000000000000, -0.9970643078754393200 ) ) ;
#149 = AXIS2_PLACEMENT_3D ( 'NONE', #148, #147, #146 ) ;
#150 = DIRECTION ( 'NONE',  ( 0.0000000000000000000, 1.000000000000000000, 0.0000000000000000000 ) ) ;
#151 = DIRECTION ( 'NONE',  ( -1.000000000000000000, 0.0000000000000000000, 0.0000000000000000000 ) ) ;
#152 = DIRECTION ( 'NONE',  ( 0.0000000000000000000, 0.0000000000000000000, 1.000000000000000000 ) ) ;
#153 = CARTESIAN_POINT ( 'NONE',  ( 0.0000000000000000000, 0.0000000000000000000, 1.500000000000000000 ) ) ;
#154 = AXIS2_PLACEMENT_3D ( 'NONE', #153, #152, #165 ) ;
#155 = FACE_OUTER_BOUND ( 'NONE', #73, .T. ) ;
#156 = CIRCLE ( 'NONE', #149, 12.70000000000000100 ) ;
#157 = SPHERICAL_SURFACE ( 'NONE', #167, 160.6000000000000200 ) ;
#158 = CYLINDRICAL_SURFACE ( 'NONE', #154, 12.69999999999999900 ) ;
#159 = FACE_OUTER_BOUND ( 'NONE', #63, .T. ) ;
#160 = CARTESIAN_POINT ( 'NONE',  ( -12.70000000000000300, 1.555301434917138800E-015, -0.9970643078754393200 ) ) ;
#161 = CARTESIAN_POINT ( 'NONE',  ( -1.555301434917150500E-015, -12.70000000000009700, 0.9970643078754393200 ) ) ;
#162 = CARTESIAN_POINT ( 'NONE',  ( 0.0000000000000000000, 0.0000000000000000000, -0.9970643078754393200 ) ) ;
#163 = AXIS2_PLACEMENT_3D ( 'NONE', #162, #16, #6 ) ;
#164 = CIRCLE ( 'NONE', #163, 12.70000000000000100 ) ;
#165 = DIRECTION ( 'NONE',  ( 1.000000000000000000, 0.0000000000000000000, 0.0000000000000000000 ) ) ;
#166 = CARTESIAN_POINT ( 'NONE',  ( 0.0000000000000000000, 0.0000000000000000000, -159.0999999999999900 ) ) ;
#167 = AXIS2_PLACEMENT_3D ( 'NONE', #166, #151, #150 ) ;
#168 = ORGANIZATION ( 'UNSPECIFIED', 'UNSPECIFIED', '' ) ;
#169 = DIRECTION ( 'NONE',  ( 0.0000000000000000000, 0.0000000000000000000, -1.000000000000000000 ) ) ;
#170 = DIRECTION ( 'NONE',  ( 1.000000000000000000, 0.0000000000000000000, 0.0000000000000000000 ) ) ;
#171 = AXIS2_PLACEMENT_3D ( 'NONE', #179, #170, #169 ) ;
#172 = CIRCLE ( 'NONE', #171, 160.6000000000000200 ) ;
#173 = CIRCLE ( 'NONE', #178, 160.6000000000000200 ) ;
#174 = CARTESIAN_POINT ( 'NONE',  ( 0.0000000000000000000, 12.70000000000009700, -0.9970643078754393200 ) ) ;
#175 = DIRECTION ( 'NONE',  ( -1.224646799147353200E-016, -1.000000000000000000, 0.0000000000000000000 ) ) ;
#176 = DIRECTION ( 'NONE',  ( -1.000000000000000000, 1.224646799147353200E-016, 0.0000000000000000000 ) ) ;
#177 = CARTESIAN_POINT ( 'NONE',  ( 0.0000000000000000000, 0.0000000000000000000, 159.0999999999999900 ) ) ;
#178 = AXIS2_PLACEMENT_3D ( 'NONE', #177, #176, #175 ) ;
#179 = CARTESIAN_POINT ( 'NONE',  ( 0.0000000000000000000, 0.0000000000000000000, 159.0999999999999900 ) ) ;
#180 =( NAMED_UNIT ( * ) PLANE_ANGLE_UNIT ( ) SI_UNIT ( $, .RADIAN. ) );
#181 = DIRECTION ( 'NONE',  ( -1.224646799147353200E-016, -1.000000000000000000, 0.0000000000000000000 ) ) ;
#182 = DIRECTION ( 'NONE',  ( -1.000000000000000000, 1.224646799147353200E-016, 0.0000000000000000000 ) ) ;
#183 = CARTESIAN_POINT ( 'NONE',  ( 0.0000000000000000000, 0.0000000000000000000, -159.0999999999999900 ) ) ;
#184 = AXIS2_PLACEMENT_3D ( 'NONE', #183, #182, #181 ) ;
#185 =( LENGTH_UNIT ( ) NAMED_UNIT ( * ) SI_UNIT ( .MILLI., .METRE. ) );
#186 = CARTESIAN_POINT ( 'NONE',  ( 0.0000000000000000000, 9.833913797153246900E-015, -1.500000000000029100 ) ) ;
#187 = AXIS2_PLACEMENT_3D ( 'NONE', #191, #190, #189 ) ;
#188 = SPHERICAL_SURFACE ( 'NONE', #187, 160.6000000000000200 ) ;
#189 = DIRECTION ( 'NONE',  ( 0.0000000000000000000, 1.000000000000000000, 0.0000000000000000000 ) ) ;
#190 = DIRECTION ( 'NONE',  ( -1.000000000000000000, 0.0000000000000000000, 0.0000000000000000000 ) ) ;
#191 = CARTESIAN_POINT ( 'NONE',  ( 0.0000000000000000000, 0.0000000000000000000, 159.0999999999999900 ) ) ;
#192 = SECURITY_CLASSIFICATION_LEVEL ( 'unclassified' ) ;
#193 = FACE_OUTER_BOUND ( 'NONE', #76, .T. ) ;
#194 = CIRCLE ( 'NONE', #184, 160.6000000000000200 ) ;
#195 = CARTESIAN_POINT ( 'NONE',  ( 0.0000000000000000000, 9.833913797153246900E-015, 1.500000000000029100 ) ) ;
#196 = CARTESIAN_POINT ( 'NONE',  ( 0.0000000000000000000, 0.0000000000000000000, 0.0000000000000000000 ) ) ;
#197 = DIRECTION ( 'NONE',  ( 0.0000000000000000000, 0.0000000000000000000, 1.000000000000000000 ) ) ;
#198 = MECHANICAL_CONTEXT ( 'NONE', #200, 'mechanical' ) ;
#199 = APPLICATION_PROTOCOL_DEFINITION ( 'international standard', 'config_control_design', 1994, #200 ) ;
#200 = APPLICATION_CONTEXT ( 'configuration controlled 3d designs of mechanical parts and assemblies' ) ;
#201 = DIRECTION ( 'NONE',  ( 1.000000000000000000, 0.0000000000000000000, 0.0000000000000000000 ) ) ;
#202 = AXIS2_PLACEMENT_3D ( 'NONE', #196, #197, #201 ) ;
#203 = APPROVAL_ROLE ( '' ) ;
#204 = APPROVAL ( #205, 'UNSPECIFIED' ) ;
#205 = APPROVAL_STATUS ( 'not_yet_approved' ) ;
#206 = DATE_AND_TIME ( #214, #215 ) ;
#207 = APPROVAL_PERSON_ORGANIZATION ( #211, #209, #208 ) ;
#208 = APPROVAL_ROLE ( '' ) ;
#209 = APPROVAL ( #210, 'UNSPECIFIED' ) ;
#210 = APPROVAL_STATUS ( 'not_yet_approved' ) ;
#211 = PERSON_AND_ORGANIZATION ( #28, #168 ) ;
#212 = CC_DESIGN_APPROVAL ( #209, ( #217 ) ) ;
#213 = APPROVAL_DATE_TIME ( #206, #209 ) ;
#214 = CALENDAR_DATE ( 2008, 13, 10 ) ;
#215 = LOCAL_TIME ( 10, 48, 52.00000000000000000, #216 ) ;
#216 = COORDINATED_UNIVERSAL_TIME_OFFSET ( 5, 0, .BEHIND. ) ;
#217 = PRODUCT_DEFINITION_FORMATION_WITH_SPECIFIED_SOURCE ( 'ANY', '', #30, .NOT_KNOWN. ) ;
#218 = CC_DESIGN_PERSON_AND_ORGANIZATION_ASSIGNMENT ( #227, #226, ( #30 ) ) ;
#219 = APPROVAL_DATE_TIME ( #244, #204 ) ;
#220 = CALENDAR_DATE ( 2008, 13, 10 ) ;
#221 = LOCAL_TIME ( 10, 48, 52.00000000000000000, #245 ) ;
#222 = CC_DESIGN_PERSON_AND_ORGANIZATION_ASSIGNMENT ( #232, #231, ( #224 ) ) ;
#223 = CC_DESIGN_APPROVAL ( #204, ( #224 ) ) ;
#224 = PRODUCT_DEFINITION ( 'UNKNOWN', '', #217, #225 ) ;
#225 = DESIGN_CONTEXT ( 'detailed design', #230, 'design' ) ;
#226 = PERSON_AND_ORGANIZATION_ROLE ( 'design_owner' ) ;
#227 = PERSON_AND_ORGANIZATION ( #28, #168 ) ;
#228 = PERSON_AND_ORGANIZATION ( #28, #168 ) ;
#229 = APPLICATION_PROTOCOL_DEFINITION ( 'international standard', 'config_control_design', 1994, #230 ) ;
#230 = APPLICATION_CONTEXT ( 'configuration controlled 3d designs of mechanical parts and assemblies' ) ;
#231 = PERSON_AND_ORGANIZATION_ROLE ( 'creator' ) ;
#232 = PERSON_AND_ORGANIZATION ( #28, #168 ) ;
#233 = PERSON_AND_ORGANIZATION_ROLE ( 'design_supplier' ) ;
#234 = PERSON_AND_ORGANIZATION ( #28, #168 ) ;
#235 = CC_DESIGN_PERSON_AND_ORGANIZATION_ASSIGNMENT ( #237, #236, ( #217 ) ) ;
#236 = PERSON_AND_ORGANIZATION_ROLE ( 'creator' ) ;
#237 = PERSON_AND_ORGANIZATION ( #28, #168 ) ;
#238 = DATE_AND_TIME ( #242, #243 ) ;
#239 = COORDINATED_UNIVERSAL_TIME_OFFSET ( 5, 0, .BEHIND. ) ;
#240 = CC_DESIGN_DATE_AND_TIME_ASSIGNMENT ( #238, #241, ( #224 ) ) ;
#241 = DATE_TIME_ROLE ( 'creation_date' ) ;
#242 = CALENDAR_DATE ( 2008, 13, 10 ) ;
#243 = LOCAL_TIME ( 10, 48, 52.00000000000000000, #239 ) ;
#244 = DATE_AND_TIME ( #220, #221 ) ;
#245 = COORDINATED_UNIVERSAL_TIME_OFFSET ( 5, 0, .BEHIND. ) ;
#246 = APPROVAL_PERSON_ORGANIZATION ( #228, #204, #203 ) ;
#247 = COORDINATED_UNIVERSAL_TIME_OFFSET ( 5, 0, .BEHIND. ) ;
#248 = LOCAL_TIME ( 10, 48, 52.00000000000000000, #247 ) ;
#249 = CC_DESIGN_APPROVAL ( #265, ( #33 ) ) ;
#250 = APPROVAL_DATE_TIME ( #251, #265 ) ;
#251 = DATE_AND_TIME ( #252, #253 ) ;
#252 = CALENDAR_DATE ( 2008, 13, 10 ) ;
#253 = LOCAL_TIME ( 10, 48, 52.00000000000000000, #254 ) ;
#254 = COORDINATED_UNIVERSAL_TIME_OFFSET ( 5, 0, .BEHIND. ) ;
#255 = PRODUCT_DEFINITION_SHAPE ( 'NONE', 'NONE',  #224 ) ;
#256 = DATE_AND_TIME ( #257, #248 ) ;
#257 = CALENDAR_DATE ( 2008, 13, 10 ) ;
#258 = APPROVAL_STATUS ( 'not_yet_approved' ) ;
#259 = PERSON_AND_ORGANIZATION ( #28, #168 ) ;
#260 = SHAPE_DEFINITION_REPRESENTATION ( #255, #26 ) ;
#261 = PRODUCT_RELATED_PRODUCT_CATEGORY ( 'detail', '', ( #30 ) ) ;
#262 = CC_DESIGN_SECURITY_CLASSIFICATION ( #33, ( #217 ) ) ;
#263 = APPROVAL_PERSON_ORGANIZATION ( #259, #265, #264 ) ;
#264 = APPROVAL_ROLE ( '' ) ;
#265 = APPROVAL ( #258, 'UNSPECIFIED' ) ;
#266 = CC_DESIGN_DATE_AND_TIME_ASSIGNMENT ( #256, #267, ( #33 ) ) ;
#267 = DATE_TIME_ROLE ( 'classification_date' ) ;
ENDSEC;
END-ISO-10303-21;
