ISO-10303-21;
HEADER;
FILE_DESCRIPTION (( 'STEP AP203' ),
    '1' );
FILE_NAME ('Web Model ZnSe Unctd_39391.step',
    '2018-09-27T18:10:26',
    ( '' ),
    ( '' ),
    'SwSTEP 2.0',
    'SolidWorks 2016',
    '' );
FILE_SCHEMA (( 'CONFIG_CONTROL_DESIGN' ));
ENDSEC;

DATA;
#1 = CARTESIAN_POINT ( 'NONE',  ( 0.0000000000000000000, 0.0000000000000000000, -0.5000000000000000000 ) ) ;
#2 = PERSON_AND_ORGANIZATION ( #12, #160 ) ;
#3 = VECTOR ( 'NONE', #74, 1000.000000000000000 ) ;
#4 = APPROVAL_ROLE ( '' ) ;
#5 = APPROVAL_STATUS ( 'not_yet_approved' ) ;
#6 = PERSON_AND_ORGANIZATION_ROLE ( 'creator' ) ;
#7 = ORIENTED_EDGE ( 'NONE', *, *, #174, .T. ) ;
#8 = DIRECTION ( 'NONE',  ( 1.000000000000000000, 0.0000000000000000000, 0.0000000000000000000 ) ) ;
#9 = AXIS2_PLACEMENT_3D ( 'NONE', #1, #30, #144 ) ;
#10 = ORIENTED_EDGE ( 'NONE', *, *, #66, .F. ) ;
#11 = DATE_AND_TIME ( #59, #124 ) ;
#12 = PERSON ( 'UNSPECIFIED', 'UNSPECIFIED', 'UNSPECIFIED', ('UNSPECIFIED'), ('UNSPECIFIED'), ('UNSPECIFIED') ) ;
#13 = AXIS2_PLACEMENT_3D ( 'NONE', #91, #132, #64 ) ;
#14 = AXIS2_PLACEMENT_3D ( 'NONE', #101, #139, #86 ) ;
#15 = COORDINATED_UNIVERSAL_TIME_OFFSET ( 5, 0, .BEHIND. ) ;
#16 = DIRECTION ( 'NONE',  ( -1.000000000000000000, 0.0000000000000000000, 0.0000000000000000000 ) ) ;
#17 = CYLINDRICAL_SURFACE ( 'NONE', #22, 6.349999999999999600 ) ;
#18 = CARTESIAN_POINT ( 'NONE',  ( 0.0000000000000000000, 0.0000000000000000000, 0.0000000000000000000 ) ) ;
#19 = PERSON_AND_ORGANIZATION_ROLE ( 'design_owner' ) ;
#20 = DIRECTION ( 'NONE',  ( 0.0000000000000000000, 0.0000000000000000000, 1.000000000000000000 ) ) ;
#21 = PERSON_AND_ORGANIZATION ( #12, #160 ) ;
#22 = AXIS2_PLACEMENT_3D ( 'NONE', #35, #33, #16 ) ;
#23 = CYLINDRICAL_SURFACE ( 'NONE', #26, 6.349999999999999600 ) ;
#24 = PERSON_AND_ORGANIZATION ( #12, #160 ) ;
#25 = PRODUCT_DEFINITION_SHAPE ( 'NONE', 'NONE',  #122 ) ;
#26 = AXIS2_PLACEMENT_3D ( 'NONE', #120, #115, #164 ) ;
#27 = CIRCLE ( 'NONE', #45, 6.349999999999999600 ) ;
#28 = LOCAL_TIME ( 14, 10, 26.00000000000000000, #65 ) ;
#29 = DIRECTION ( 'NONE',  ( 1.000000000000000000, 0.0000000000000000000, 0.0000000000000000000 ) ) ;
#30 = DIRECTION ( 'NONE',  ( 0.0000000000000000000, 0.0000000000000000000, 1.000000000000000000 ) ) ;
#31 = DESIGN_CONTEXT ( 'detailed design', #37, 'design' ) ;
#32 = ORIENTED_EDGE ( 'NONE', *, *, #55, .F. ) ;
#33 = DIRECTION ( 'NONE',  ( -0.0000000000000000000, -0.0000000000000000000, -1.000000000000000000 ) ) ;
#34 = EDGE_CURVE ( 'NONE', #108, #44, #170, .T. ) ;
#35 = CARTESIAN_POINT ( 'NONE',  ( 0.0000000000000000000, 0.0000000000000000000, 0.5000000000000000000 ) ) ;
#36 = ORIENTED_EDGE ( 'NONE', *, *, #174, .F. ) ;
#37 = APPLICATION_CONTEXT ( 'configuration controlled 3d designs of mechanical parts and assemblies' ) ;
#38 = APPLICATION_PROTOCOL_DEFINITION ( 'international standard', 'config_control_design', 1994, #47 ) ;
#39 = FACE_OUTER_BOUND ( 'NONE', #173, .T. ) ;
#40 = CALENDAR_DATE ( 2018, 27, 9 ) ;
#41 = LINE ( 'NONE', #154, #3 ) ;
#42 = PRODUCT_DEFINITION_FORMATION_WITH_SPECIFIED_SOURCE ( 'ANY', '', #111, .NOT_KNOWN. ) ;
#43 = LOCAL_TIME ( 14, 10, 26.00000000000000000, #15 ) ;
#44 = VERTEX_POINT ( 'NONE', #113 ) ;
#45 = AXIS2_PLACEMENT_3D ( 'NONE', #168, #166, #142 ) ;
#46 = DIRECTION ( 'NONE',  ( 1.000000000000000000, 0.0000000000000000000, -0.0000000000000000000 ) ) ;
#47 = APPLICATION_CONTEXT ( 'configuration controlled 3d designs of mechanical parts and assemblies' ) ;
#48 = ORIENTED_EDGE ( 'NONE', *, *, #34, .T. ) ;
#49 =( LENGTH_UNIT ( ) NAMED_UNIT ( * ) SI_UNIT ( .MILLI., .METRE. ) );
#50 = CC_DESIGN_PERSON_AND_ORGANIZATION_ASSIGNMENT ( #131, #19, ( #111 ) ) ;
#51 = UNCERTAINTY_MEASURE_WITH_UNIT (LENGTH_MEASURE( 1.000000000000000100E-005 ), #49, 'distance_accuracy_value', 'NONE');
#52 = PERSON_AND_ORGANIZATION_ROLE ( 'classification_officer' ) ;
#53 = FACE_OUTER_BOUND ( 'NONE', #158, .T. ) ;
#54 = ADVANCED_FACE ( 'NONE', ( #53 ), #149, .T. ) ;
#55 = EDGE_CURVE ( 'NONE', #44, #108, #79, .T. ) ;
#56 = PERSON_AND_ORGANIZATION ( #12, #160 ) ;
#57 = MANIFOLD_SOLID_BREP ( 'Boss-Extrude1', #83 ) ;
#58 = EDGE_CURVE ( 'NONE', #71, #148, #73, .T. ) ;
#59 = CALENDAR_DATE ( 2018, 27, 9 ) ;
#60 = CARTESIAN_POINT ( 'NONE',  ( 6.349999999999999600, 7.776507174585692200E-016, 0.5000000000000000000 ) ) ;
#61 = ORIENTED_EDGE ( 'NONE', *, *, #161, .F. ) ;
#62 = APPROVAL_STATUS ( 'not_yet_approved' ) ;
#63 = APPROVAL ( #5, 'UNSPECIFIED' ) ;
#64 = DIRECTION ( 'NONE',  ( 1.000000000000000000, 0.0000000000000000000, 0.0000000000000000000 ) ) ;
#65 = COORDINATED_UNIVERSAL_TIME_OFFSET ( 5, 0, .BEHIND. ) ;
#66 = EDGE_CURVE ( 'NONE', #71, #44, #41, .T. ) ;
#67 = FACE_OUTER_BOUND ( 'NONE', #110, .T. ) ;
#68 = APPROVAL_DATE_TIME ( #175, #159 ) ;
#69 = AXIS2_PLACEMENT_3D ( 'NONE', #98, #140, #29 ) ;
#70 = CC_DESIGN_APPROVAL ( #63, ( #42 ) ) ;
#71 = VERTEX_POINT ( 'NONE', #60 ) ;
#72 = LOCAL_TIME ( 14, 10, 26.00000000000000000, #109 ) ;
#73 = CIRCLE ( 'NONE', #13, 6.349999999999999600 ) ;
#74 = DIRECTION ( 'NONE',  ( -0.0000000000000000000, -0.0000000000000000000, -1.000000000000000000 ) ) ;
#75 = CARTESIAN_POINT ( 'NONE',  ( 0.0000000000000000000, 0.0000000000000000000, -0.5000000000000000000 ) ) ;
#76 = APPLICATION_PROTOCOL_DEFINITION ( 'international standard', 'config_control_design', 1994, #37 ) ;
#77 = DATE_TIME_ROLE ( 'classification_date' ) ;
#78 = APPROVAL_DATE_TIME ( #114, #63 ) ;
#79 = CIRCLE ( 'NONE', #9, 6.349999999999999600 ) ;
#80 = ADVANCED_FACE ( 'NONE', ( #138 ), #17, .T. ) ;
#81 = CC_DESIGN_PERSON_AND_ORGANIZATION_ASSIGNMENT ( #136, #118, ( #42 ) ) ;
#82 = DATE_AND_TIME ( #146, #28 ) ;
#83 = CLOSED_SHELL ( 'NONE', ( #123, #80, #54, #157 ) ) ;
#84 = AXIS2_PLACEMENT_3D ( 'NONE', #18, #20, #8 ) ;
#85 =( GEOMETRIC_REPRESENTATION_CONTEXT ( 3 ) GLOBAL_UNCERTAINTY_ASSIGNED_CONTEXT ( ( #51 ) ) GLOBAL_UNIT_ASSIGNED_CONTEXT ( ( #49, #153, #155 ) ) REPRESENTATION_CONTEXT ( 'NONE', 'WORKASPACE' ) );
#86 = DIRECTION ( 'NONE',  ( 1.000000000000000000, 0.0000000000000000000, -0.0000000000000000000 ) ) ;
#87 = APPROVAL_DATE_TIME ( #145, #127 ) ;
#88 = EDGE_LOOP ( 'NONE', ( #10, #36, #105, #48 ) ) ;
#89 = CARTESIAN_POINT ( 'NONE',  ( -6.349999999999999600, 0.0000000000000000000, 0.5000000000000000000 ) ) ;
#90 = CC_DESIGN_DATE_AND_TIME_ASSIGNMENT ( #11, #77, ( #130 ) ) ;
#91 = CARTESIAN_POINT ( 'NONE',  ( 0.0000000000000000000, 0.0000000000000000000, 0.5000000000000000000 ) ) ;
#92 = LOCAL_TIME ( 14, 10, 26.00000000000000000, #167 ) ;
#93 = ORIENTED_EDGE ( 'NONE', *, *, #58, .T. ) ;
#94 = PRODUCT_RELATED_PRODUCT_CATEGORY ( 'detail', '', ( #111 ) ) ;
#95 = CALENDAR_DATE ( 2018, 27, 9 ) ;
#96 = SHAPE_DEFINITION_REPRESENTATION ( #25, #100 ) ;
#97 = CC_DESIGN_APPROVAL ( #159, ( #130 ) ) ;
#98 = CARTESIAN_POINT ( 'NONE',  ( 0.0000000000000000000, 0.0000000000000000000, -0.5000000000000000000 ) ) ;
#99 = APPROVAL_PERSON_ORGANIZATION ( #21, #63, #103 ) ;
#100 = ADVANCED_BREP_SHAPE_REPRESENTATION ( 'Web Model ZnSe Unctd_39391', ( #57, #84 ), #85 ) ;
#101 = CARTESIAN_POINT ( 'NONE',  ( 0.0000000000000000000, 0.0000000000000000000, 0.5000000000000000000 ) ) ;
#102 = DATE_TIME_ROLE ( 'creation_date' ) ;
#103 = APPROVAL_ROLE ( '' ) ;
#104 = CARTESIAN_POINT ( 'NONE',  ( -6.349999999999999600, 0.0000000000000000000, 0.5000000000000000000 ) ) ;
#105 = ORIENTED_EDGE ( 'NONE', *, *, #161, .T. ) ;
#106 = DIRECTION ( 'NONE',  ( -0.0000000000000000000, -0.0000000000000000000, -1.000000000000000000 ) ) ;
#107 = ORIENTED_EDGE ( 'NONE', *, *, #34, .F. ) ;
#108 = VERTEX_POINT ( 'NONE', #165 ) ;
#109 = COORDINATED_UNIVERSAL_TIME_OFFSET ( 5, 0, .BEHIND. ) ;
#110 = EDGE_LOOP ( 'NONE', ( #107, #32 ) ) ;
#111 = PRODUCT ( 'Web Model ZnSe Unctd_39391', 'Web Model ZnSe Unctd_39391', '', ( #116 ) ) ;
#112 = CC_DESIGN_PERSON_AND_ORGANIZATION_ASSIGNMENT ( #24, #52, ( #130 ) ) ;
#113 = CARTESIAN_POINT ( 'NONE',  ( 6.349999999999999600, 7.776507174585692200E-016, -0.5000000000000000000 ) ) ;
#114 = DATE_AND_TIME ( #95, #92 ) ;
#115 = DIRECTION ( 'NONE',  ( -0.0000000000000000000, -0.0000000000000000000, -1.000000000000000000 ) ) ;
#116 = MECHANICAL_CONTEXT ( 'NONE', #47, 'mechanical' ) ;
#117 = CC_DESIGN_SECURITY_CLASSIFICATION ( #130, ( #42 ) ) ;
#118 = PERSON_AND_ORGANIZATION_ROLE ( 'design_supplier' ) ;
#119 = PERSON_AND_ORGANIZATION_ROLE ( 'creator' ) ;
#120 = CARTESIAN_POINT ( 'NONE',  ( 0.0000000000000000000, 0.0000000000000000000, 0.5000000000000000000 ) ) ;
#121 = APPROVAL_PERSON_ORGANIZATION ( #150, #159, #133 ) ;
#122 = PRODUCT_DEFINITION ( 'UNKNOWN', '', #42, #31 ) ;
#123 = ADVANCED_FACE ( 'NONE', ( #39 ), #23, .T. ) ;
#124 = LOCAL_TIME ( 14, 10, 26.00000000000000000, #156 ) ;
#125 = LINE ( 'NONE', #89, #163 ) ;
#126 = PERSON_AND_ORGANIZATION ( #12, #160 ) ;
#127 = APPROVAL ( #62, 'UNSPECIFIED' ) ;
#128 = DIRECTION ( 'NONE',  ( 0.0000000000000000000, 0.0000000000000000000, 1.000000000000000000 ) ) ;
#129 = SECURITY_CLASSIFICATION_LEVEL ( 'unclassified' ) ;
#130 = SECURITY_CLASSIFICATION ( '', '', #129 ) ;
#131 = PERSON_AND_ORGANIZATION ( #12, #160 ) ;
#132 = DIRECTION ( 'NONE',  ( 0.0000000000000000000, 0.0000000000000000000, 1.000000000000000000 ) ) ;
#133 = APPROVAL_ROLE ( '' ) ;
#134 = ORIENTED_EDGE ( 'NONE', *, *, #55, .T. ) ;
#135 = AXIS2_PLACEMENT_3D ( 'NONE', #75, #128, #46 ) ;
#136 = PERSON_AND_ORGANIZATION ( #12, #160 ) ;
#137 = CC_DESIGN_PERSON_AND_ORGANIZATION_ASSIGNMENT ( #126, #119, ( #122 ) ) ;
#138 = FACE_OUTER_BOUND ( 'NONE', #88, .T. ) ;
#139 = DIRECTION ( 'NONE',  ( 0.0000000000000000000, 0.0000000000000000000, 1.000000000000000000 ) ) ;
#140 = DIRECTION ( 'NONE',  ( 0.0000000000000000000, 0.0000000000000000000, 1.000000000000000000 ) ) ;
#141 = ORIENTED_EDGE ( 'NONE', *, *, #58, .F. ) ;
#142 = DIRECTION ( 'NONE',  ( 1.000000000000000000, 0.0000000000000000000, 0.0000000000000000000 ) ) ;
#143 = CC_DESIGN_APPROVAL ( #127, ( #122 ) ) ;
#144 = DIRECTION ( 'NONE',  ( 1.000000000000000000, 0.0000000000000000000, 0.0000000000000000000 ) ) ;
#145 = DATE_AND_TIME ( #40, #43 ) ;
#146 = CALENDAR_DATE ( 2018, 27, 9 ) ;
#147 = CC_DESIGN_PERSON_AND_ORGANIZATION_ASSIGNMENT ( #56, #6, ( #42 ) ) ;
#148 = VERTEX_POINT ( 'NONE', #104 ) ;
#149 = PLANE ( 'NONE',  #14 ) ;
#150 = PERSON_AND_ORGANIZATION ( #12, #160 ) ;
#151 = PLANE ( 'NONE',  #135 ) ;
#152 = ORIENTED_EDGE ( 'NONE', *, *, #66, .T. ) ;
#153 =( NAMED_UNIT ( * ) PLANE_ANGLE_UNIT ( ) SI_UNIT ( $, .RADIAN. ) );
#154 = CARTESIAN_POINT ( 'NONE',  ( 6.349999999999999600, 7.776507174585692200E-016, 0.5000000000000000000 ) ) ;
#155 =( NAMED_UNIT ( * ) SI_UNIT ( $, .STERADIAN. ) SOLID_ANGLE_UNIT ( ) );
#156 = COORDINATED_UNIVERSAL_TIME_OFFSET ( 5, 0, .BEHIND. ) ;
#157 = ADVANCED_FACE ( 'NONE', ( #67 ), #151, .F. ) ;
#158 = EDGE_LOOP ( 'NONE', ( #7, #93 ) ) ;
#159 = APPROVAL ( #169, 'UNSPECIFIED' ) ;
#160 = ORGANIZATION ( 'UNSPECIFIED', 'UNSPECIFIED', '' ) ;
#161 = EDGE_CURVE ( 'NONE', #148, #108, #125, .T. ) ;
#162 = APPROVAL_PERSON_ORGANIZATION ( #2, #127, #4 ) ;
#163 = VECTOR ( 'NONE', #106, 1000.000000000000000 ) ;
#164 = DIRECTION ( 'NONE',  ( -1.000000000000000000, 0.0000000000000000000, 0.0000000000000000000 ) ) ;
#165 = CARTESIAN_POINT ( 'NONE',  ( -6.349999999999999600, 0.0000000000000000000, -0.5000000000000000000 ) ) ;
#166 = DIRECTION ( 'NONE',  ( 0.0000000000000000000, 0.0000000000000000000, 1.000000000000000000 ) ) ;
#167 = COORDINATED_UNIVERSAL_TIME_OFFSET ( 5, 0, .BEHIND. ) ;
#168 = CARTESIAN_POINT ( 'NONE',  ( 0.0000000000000000000, 0.0000000000000000000, 0.5000000000000000000 ) ) ;
#169 = APPROVAL_STATUS ( 'not_yet_approved' ) ;
#170 = CIRCLE ( 'NONE', #69, 6.349999999999999600 ) ;
#171 = CC_DESIGN_DATE_AND_TIME_ASSIGNMENT ( #82, #102, ( #122 ) ) ;
#172 = CALENDAR_DATE ( 2018, 27, 9 ) ;
#173 = EDGE_LOOP ( 'NONE', ( #141, #152, #134, #61 ) ) ;
#174 = EDGE_CURVE ( 'NONE', #148, #71, #27, .T. ) ;
#175 = DATE_AND_TIME ( #172, #72 ) ;
ENDSEC;
END-ISO-10303-21;
