ISO-10303-21;
HEADER;
FILE_DESCRIPTION (( 'STEP AP203' ),
    '1' );
FILE_NAME ('Web Model 46691.STEP',
    '2017-01-31T15:19:23',
    ( '' ),
    ( '' ),
    'SwSTEP 2.0',
    'SolidWorks 2016',
    '' );
FILE_SCHEMA (( 'CONFIG_CONTROL_DESIGN' ));
ENDSEC;

DATA;
#1 = PRODUCT_DEFINITION_SHAPE ( 'NONE', 'NONE',  #39 ) ;
#2 = CARTESIAN_POINT ( 'NONE',  ( 8.999999999999996400, -14.99999999999999600, 2.000000000000000000 ) ) ;
#3 = EDGE_CURVE ( 'NONE', #194, #91, #68, .T. ) ;
#4 = DIRECTION ( 'NONE',  ( -1.156482317317871500E-016, 1.000000000000000000, -0.0000000000000000000 ) ) ;
#5 = LOCAL_TIME ( 10, 19, 23.00000000000000000, #83 ) ;
#6 = ORIENTED_EDGE ( 'NONE', *, *, #100, .F. ) ;
#7 = VECTOR ( 'NONE', #120, 1000.000000000000000 ) ;
#8 = CARTESIAN_POINT ( 'NONE',  ( -9.000000000000007100, 15.00000000000000400, 0.0000000000000000000 ) ) ;
#9 = CARTESIAN_POINT ( 'NONE',  ( -9.000000000000007100, 15.00000000000000400, 2.000000000000000000 ) ) ;
#10 = LOCAL_TIME ( 10, 19, 23.00000000000000000, #140 ) ;
#11 = DIRECTION ( 'NONE',  ( -0.0000000000000000000, -0.0000000000000000000, -1.000000000000000000 ) ) ;
#12 = APPLICATION_CONTEXT ( 'configuration controlled 3d designs of mechanical parts and assemblies' ) ;
#13 = AXIS2_PLACEMENT_3D ( 'NONE', #71, #145, #228 ) ;
#14 = CALENDAR_DATE ( 2017, 31, 1 ) ;
#15 = VECTOR ( 'NONE', #4, 1000.000000000000000 ) ;
#16 = APPROVAL_PERSON_ORGANIZATION ( #197, #215, #191 ) ;
#17 = PRODUCT_DEFINITION_FORMATION_WITH_SPECIFIED_SOURCE ( 'ANY', '', #144, .NOT_KNOWN. ) ;
#18 = AXIS2_PLACEMENT_3D ( 'NONE', #9, #143, #176 ) ;
#19 = PERSON_AND_ORGANIZATION_ROLE ( 'design_supplier' ) ;
#20 = ORIENTED_EDGE ( 'NONE', *, *, #73, .F. ) ;
#21 = PERSON_AND_ORGANIZATION ( #178, #118 ) ;
#22 = DIRECTION ( 'NONE',  ( -1.000000000000000000, -0.0000000000000000000, -0.0000000000000000000 ) ) ;
#23 = VECTOR ( 'NONE', #11, 1000.000000000000000 ) ;
#24 = CARTESIAN_POINT ( 'NONE',  ( -9.000000000000007100, 15.00000000000000400, 0.0000000000000000000 ) ) ;
#25 = EDGE_CURVE ( 'NONE', #133, #207, #169, .T. ) ;
#26 = ORIENTED_EDGE ( 'NONE', *, *, #188, .F. ) ;
#27 =( NAMED_UNIT ( * ) PLANE_ANGLE_UNIT ( ) SI_UNIT ( $, .RADIAN. ) );
#28 = CARTESIAN_POINT ( 'NONE',  ( 8.999999999999992900, 15.00000000000000400, 2.000000000000000000 ) ) ;
#29 = CARTESIAN_POINT ( 'NONE',  ( -9.000000000000003600, -14.99999999999999600, 2.000000000000000000 ) ) ;
#30 = EDGE_CURVE ( 'NONE', #207, #54, #193, .T. ) ;
#31 = VECTOR ( 'NONE', #192, 1000.000000000000000 ) ;
#32 = DATE_AND_TIME ( #125, #203 ) ;
#33 = CC_DESIGN_DATE_AND_TIME_ASSIGNMENT ( #155, #147, ( #39 ) ) ;
#34 = ORIENTED_EDGE ( 'NONE', *, *, #37, .T. ) ;
#35 = ADVANCED_FACE ( 'NONE', ( #53 ), #88, .F. ) ;
#36 = FACE_OUTER_BOUND ( 'NONE', #116, .T. ) ;
#37 = EDGE_CURVE ( 'NONE', #61, #194, #153, .T. ) ;
#38 = VECTOR ( 'NONE', #89, 1000.000000000000000 ) ;
#39 = PRODUCT_DEFINITION ( 'UNKNOWN', '', #17, #87 ) ;
#40 = CARTESIAN_POINT ( 'NONE',  ( 8.999999999999992900, 15.00000000000000400, 2.000000000000000000 ) ) ;
#41 = LINE ( 'NONE', #29, #122 ) ;
#42 = DIRECTION ( 'NONE',  ( -1.000000000000000000, -1.156482317317871700E-016, 0.0000000000000000000 ) ) ;
#43 = FACE_OUTER_BOUND ( 'NONE', #190, .T. ) ;
#44 = ORIENTED_EDGE ( 'NONE', *, *, #84, .F. ) ;
#45 = PLANE ( 'NONE',  #107 ) ;
#46 = LOCAL_TIME ( 10, 19, 23.00000000000000000, #219 ) ;
#47 = CC_DESIGN_PERSON_AND_ORGANIZATION_ASSIGNMENT ( #69, #230, ( #144 ) ) ;
#48 = APPLICATION_CONTEXT ( 'configuration controlled 3d designs of mechanical parts and assemblies' ) ;
#49 = PLANE ( 'NONE',  #13 ) ;
#50 = DIRECTION ( 'NONE',  ( 1.000000000000000000, 0.0000000000000000000, 0.0000000000000000000 ) ) ;
#51 = PLANE ( 'NONE',  #199 ) ;
#52 = DIRECTION ( 'NONE',  ( 0.0000000000000000000, 1.000000000000000000, 0.0000000000000000000 ) ) ;
#53 = FACE_OUTER_BOUND ( 'NONE', #86, .T. ) ;
#54 = VERTEX_POINT ( 'NONE', #24 ) ;
#55 = FACE_OUTER_BOUND ( 'NONE', #106, .T. ) ;
#56 = ADVANCED_FACE ( 'NONE', ( #43 ), #138, .T. ) ;
#57 = APPROVAL_ROLE ( '' ) ;
#58 = ORIENTED_EDGE ( 'NONE', *, *, #188, .T. ) ;
#59 = LINE ( 'NONE', #227, #124 ) ;
#60 = CC_DESIGN_APPROVAL ( #98, ( #17 ) ) ;
#61 = VERTEX_POINT ( 'NONE', #123 ) ;
#62 = CARTESIAN_POINT ( 'NONE',  ( -9.000000000000007100, 15.00000000000000400, 2.000000000000000000 ) ) ;
#63 = ORIENTED_EDGE ( 'NONE', *, *, #3, .T. ) ;
#64 = DIRECTION ( 'NONE',  ( -1.156482317317871500E-016, 1.000000000000000000, -0.0000000000000000000 ) ) ;
#65 = EDGE_CURVE ( 'NONE', #167, #194, #141, .T. ) ;
#66 = APPLICATION_PROTOCOL_DEFINITION ( 'international standard', 'config_control_design', 1994, #48 ) ;
#67 = DIRECTION ( 'NONE',  ( 1.156482317317871500E-016, -1.000000000000000000, 0.0000000000000000000 ) ) ;
#68 = LINE ( 'NONE', #206, #15 ) ;
#69 = PERSON_AND_ORGANIZATION ( #178, #118 ) ;
#70 = DIRECTION ( 'NONE',  ( -0.0000000000000000000, -0.0000000000000000000, -1.000000000000000000 ) ) ;
#71 = CARTESIAN_POINT ( 'NONE',  ( 8.999999999999996400, -14.99999999999999600, 0.0000000000000000000 ) ) ;
#72 = APPROVAL_STATUS ( 'not_yet_approved' ) ;
#73 = EDGE_CURVE ( 'NONE', #207, #183, #151, .T. ) ;
#74 = EDGE_LOOP ( 'NONE', ( #209, #77, #6, #236 ) ) ;
#75 = CARTESIAN_POINT ( 'NONE',  ( 8.999999999999992900, 15.00000000000000400, 2.000000000000000000 ) ) ;
#76 = LINE ( 'NONE', #8, #31 ) ;
#77 = ORIENTED_EDGE ( 'NONE', *, *, #65, .F. ) ;
#78 = CC_DESIGN_PERSON_AND_ORGANIZATION_ASSIGNMENT ( #21, #216, ( #17 ) ) ;
#79 = APPROVAL_DATE_TIME ( #101, #98 ) ;
#80 = ADVANCED_FACE ( 'NONE', ( #232 ), #165, .F. ) ;
#81 = APPROVAL_ROLE ( '' ) ;
#82 = ADVANCED_FACE ( 'NONE', ( #55 ), #45, .F. ) ;
#83 = COORDINATED_UNIVERSAL_TIME_OFFSET ( 5, 0, .BEHIND. ) ;
#84 = EDGE_CURVE ( 'NONE', #61, #133, #201, .T. ) ;
#85 = MANIFOLD_SOLID_BREP ( 'Extrude1', #200 ) ;
#86 = EDGE_LOOP ( 'NONE', ( #63, #26, #44, #34 ) ) ;
#87 = DESIGN_CONTEXT ( 'detailed design', #12, 'design' ) ;
#88 = PLANE ( 'NONE',  #181 ) ;
#89 = DIRECTION ( 'NONE',  ( 1.000000000000000000, 0.0000000000000000000, 0.0000000000000000000 ) ) ;
#90 = PERSON_AND_ORGANIZATION_ROLE ( 'creator' ) ;
#91 = VERTEX_POINT ( 'NONE', #129 ) ;
#92 = APPROVAL ( #234, 'UNSPECIFIED' ) ;
#93 = CARTESIAN_POINT ( 'NONE',  ( -9.000000000000007100, 15.00000000000000400, 2.000000000000000000 ) ) ;
#94 = ADVANCED_BREP_SHAPE_REPRESENTATION ( 'Web Model 46691', ( #85, #96 ), #235 ) ;
#95 = PERSON_AND_ORGANIZATION ( #178, #118 ) ;
#96 = AXIS2_PLACEMENT_3D ( 'NONE', #161, #108, #130 ) ;
#97 = ORIENTED_EDGE ( 'NONE', *, *, #25, .F. ) ;
#98 = APPROVAL ( #172, 'UNSPECIFIED' ) ;
#99 = VECTOR ( 'NONE', #70, 1000.000000000000000 ) ;
#100 = EDGE_CURVE ( 'NONE', #54, #167, #59, .T. ) ;
#101 = DATE_AND_TIME ( #149, #5 ) ;
#102 = DATE_AND_TIME ( #212, #104 ) ;
#103 = CC_DESIGN_PERSON_AND_ORGANIZATION_ASSIGNMENT ( #119, #19, ( #17 ) ) ;
#104 = LOCAL_TIME ( 10, 19, 23.00000000000000000, #214 ) ;
#105 = DIRECTION ( 'NONE',  ( 1.000000000000000000, 0.0000000000000000000, 0.0000000000000000000 ) ) ;
#106 = EDGE_LOOP ( 'NONE', ( #160, #186, #20, #136 ) ) ;
#107 = AXIS2_PLACEMENT_3D ( 'NONE', #204, #139, #170 ) ;
#108 = DIRECTION ( 'NONE',  ( 0.0000000000000000000, 0.0000000000000000000, 1.000000000000000000 ) ) ;
#109 =( NAMED_UNIT ( * ) SI_UNIT ( $, .STERADIAN. ) SOLID_ANGLE_UNIT ( ) );
#110 = ORIENTED_EDGE ( 'NONE', *, *, #84, .T. ) ;
#111 = VECTOR ( 'NONE', #64, 1000.000000000000000 ) ;
#112 = EDGE_LOOP ( 'NONE', ( #196, #150, #97, #58 ) ) ;
#113 = CC_DESIGN_APPROVAL ( #92, ( #195 ) ) ;
#114 = COORDINATED_UNIVERSAL_TIME_OFFSET ( 5, 0, .BEHIND. ) ;
#115 = PERSON_AND_ORGANIZATION ( #178, #118 ) ;
#116 = EDGE_LOOP ( 'NONE', ( #117, #154, #226, #126 ) ) ;
#117 = ORIENTED_EDGE ( 'NONE', *, *, #65, .T. ) ;
#118 = ORGANIZATION ( 'UNSPECIFIED', 'UNSPECIFIED', '' ) ;
#119 = PERSON_AND_ORGANIZATION ( #178, #118 ) ;
#120 = DIRECTION ( 'NONE',  ( 1.156482317317871500E-016, -1.000000000000000000, 0.0000000000000000000 ) ) ;
#121 = DIRECTION ( 'NONE',  ( 1.156482317317871700E-016, -1.000000000000000000, 0.0000000000000000000 ) ) ;
#122 = VECTOR ( 'NONE', #50, 1000.000000000000000 ) ;
#123 = CARTESIAN_POINT ( 'NONE',  ( 8.999999999999996400, -14.99999999999999600, 2.000000000000000000 ) ) ;
#124 = VECTOR ( 'NONE', #67, 1000.000000000000000 ) ;
#125 = CALENDAR_DATE ( 2017, 31, 1 ) ;
#126 = ORIENTED_EDGE ( 'NONE', *, *, #213, .T. ) ;
#127 = CARTESIAN_POINT ( 'NONE',  ( -9.000000000000003600, -14.99999999999999600, 2.000000000000000000 ) ) ;
#128 = CC_DESIGN_APPROVAL ( #215, ( #39 ) ) ;
#129 = CARTESIAN_POINT ( 'NONE',  ( 8.999999999999992900, 15.00000000000000400, 0.0000000000000000000 ) ) ;
#130 = DIRECTION ( 'NONE',  ( 1.000000000000000000, 0.0000000000000000000, 0.0000000000000000000 ) ) ;
#131 = CARTESIAN_POINT ( 'NONE',  ( -9.000000000000003600, -14.99999999999999600, 0.0000000000000000000 ) ) ;
#132 = APPROVAL_PERSON_ORGANIZATION ( #95, #98, #57 ) ;
#133 = VERTEX_POINT ( 'NONE', #157 ) ;
#134 = ADVANCED_FACE ( 'NONE', ( #36 ), #51, .F. ) ;
#135 = DATE_AND_TIME ( #156, #10 ) ;
#136 = ORIENTED_EDGE ( 'NONE', *, *, #30, .T. ) ;
#137 = CC_DESIGN_SECURITY_CLASSIFICATION ( #195, ( #17 ) ) ;
#138 = PLANE ( 'NONE',  #159 ) ;
#139 = DIRECTION ( 'NONE',  ( 1.000000000000000000, 1.156482317317871700E-016, -0.0000000000000000000 ) ) ;
#140 = COORDINATED_UNIVERSAL_TIME_OFFSET ( 5, 0, .BEHIND. ) ;
#141 = LINE ( 'NONE', #221, #38 ) ;
#142 = ORIENTED_EDGE ( 'NONE', *, *, #25, .T. ) ;
#143 = DIRECTION ( 'NONE',  ( 0.0000000000000000000, -1.000000000000000000, 0.0000000000000000000 ) ) ;
#144 = PRODUCT ( 'Web Model 46691', 'Web Model 46691', '', ( #179 ) ) ;
#145 = DIRECTION ( 'NONE',  ( -0.0000000000000000000, 0.0000000000000000000, 1.000000000000000000 ) ) ;
#146 = LINE ( 'NONE', #28, #23 ) ;
#147 = DATE_TIME_ROLE ( 'creation_date' ) ;
#148 = EDGE_CURVE ( 'NONE', #91, #54, #76, .T. ) ;
#149 = CALENDAR_DATE ( 2017, 31, 1 ) ;
#150 = ORIENTED_EDGE ( 'NONE', *, *, #30, .F. ) ;
#151 = LINE ( 'NONE', #62, #7 ) ;
#152 = ADVANCED_FACE ( 'NONE', ( #218 ), #49, .F. ) ;
#153 = LINE ( 'NONE', #2, #231 ) ;
#154 = ORIENTED_EDGE ( 'NONE', *, *, #37, .F. ) ;
#155 = DATE_AND_TIME ( #14, #46 ) ;
#156 = CALENDAR_DATE ( 2017, 31, 1 ) ;
#157 = CARTESIAN_POINT ( 'NONE',  ( 8.999999999999992900, 15.00000000000000400, 2.000000000000000000 ) ) ;
#158 = DIRECTION ( 'NONE',  ( 0.0000000000000000000, -0.0000000000000000000, 1.000000000000000000 ) ) ;
#159 = AXIS2_PLACEMENT_3D ( 'NONE', #187, #205, #105 ) ;
#160 = ORIENTED_EDGE ( 'NONE', *, *, #100, .T. ) ;
#161 = CARTESIAN_POINT ( 'NONE',  ( 0.0000000000000000000, 0.0000000000000000000, 0.0000000000000000000 ) ) ;
#162 = PERSON_AND_ORGANIZATION ( #178, #118 ) ;
#163 = APPROVAL_PERSON_ORGANIZATION ( #115, #92, #81 ) ;
#164 = CC_DESIGN_PERSON_AND_ORGANIZATION_ASSIGNMENT ( #182, #90, ( #39 ) ) ;
#165 = PLANE ( 'NONE',  #18 ) ;
#166 = CARTESIAN_POINT ( 'NONE',  ( 8.999999999999996400, -14.99999999999999600, 0.0000000000000000000 ) ) ;
#167 = VERTEX_POINT ( 'NONE', #131 ) ;
#168 = APPROVAL_DATE_TIME ( #135, #92 ) ;
#169 = LINE ( 'NONE', #171, #224 ) ;
#170 = DIRECTION ( 'NONE',  ( -1.156482317317871700E-016, 1.000000000000000000, 0.0000000000000000000 ) ) ;
#171 = CARTESIAN_POINT ( 'NONE',  ( -9.000000000000007100, 15.00000000000000400, 2.000000000000000000 ) ) ;
#172 = APPROVAL_STATUS ( 'not_yet_approved' ) ;
#173 = CARTESIAN_POINT ( 'NONE',  ( -9.000000000000007100, 15.00000000000000400, 2.000000000000000000 ) ) ;
#174 = DIRECTION ( 'NONE',  ( -0.0000000000000000000, -0.0000000000000000000, -1.000000000000000000 ) ) ;
#175 = APPROVAL_DATE_TIME ( #32, #215 ) ;
#176 = DIRECTION ( 'NONE',  ( 0.0000000000000000000, -0.0000000000000000000, -1.000000000000000000 ) ) ;
#177 = ORIENTED_EDGE ( 'NONE', *, *, #223, .T. ) ;
#178 = PERSON ( 'UNSPECIFIED', 'UNSPECIFIED', 'UNSPECIFIED', ('UNSPECIFIED'), ('UNSPECIFIED'), ('UNSPECIFIED') ) ;
#179 = MECHANICAL_CONTEXT ( 'NONE', #48, 'mechanical' ) ;
#180 = APPLICATION_PROTOCOL_DEFINITION ( 'international standard', 'config_control_design', 1994, #12 ) ;
#181 = AXIS2_PLACEMENT_3D ( 'NONE', #40, #42, #121 ) ;
#182 = PERSON_AND_ORGANIZATION ( #178, #118 ) ;
#183 = VERTEX_POINT ( 'NONE', #127 ) ;
#184 = PRODUCT_RELATED_PRODUCT_CATEGORY ( 'detail', '', ( #144 ) ) ;
#185 = SECURITY_CLASSIFICATION_LEVEL ( 'unclassified' ) ;
#186 = ORIENTED_EDGE ( 'NONE', *, *, #213, .F. ) ;
#187 = CARTESIAN_POINT ( 'NONE',  ( 8.999999999999996400, -14.99999999999999600, 2.000000000000000000 ) ) ;
#188 = EDGE_CURVE ( 'NONE', #133, #91, #146, .T. ) ;
#189 = VECTOR ( 'NONE', #174, 1000.000000000000000 ) ;
#190 = EDGE_LOOP ( 'NONE', ( #110, #142, #220, #177 ) ) ;
#191 = APPROVAL_ROLE ( '' ) ;
#192 = DIRECTION ( 'NONE',  ( -1.000000000000000000, -0.0000000000000000000, -0.0000000000000000000 ) ) ;
#193 = LINE ( 'NONE', #173, #189 ) ;
#194 = VERTEX_POINT ( 'NONE', #166 ) ;
#195 = SECURITY_CLASSIFICATION ( '', '', #185 ) ;
#196 = ORIENTED_EDGE ( 'NONE', *, *, #148, .T. ) ;
#197 = PERSON_AND_ORGANIZATION ( #178, #118 ) ;
#198 = PERSON_AND_ORGANIZATION_ROLE ( 'classification_officer' ) ;
#199 = AXIS2_PLACEMENT_3D ( 'NONE', #210, #52, #158 ) ;
#200 = CLOSED_SHELL ( 'NONE', ( #35, #80, #82, #134, #56, #152 ) ) ;
#201 = LINE ( 'NONE', #75, #111 ) ;
#202 = UNCERTAINTY_MEASURE_WITH_UNIT (LENGTH_MEASURE( 1.000000000000000100E-005 ), #225, 'distance_accuracy_value', 'NONE');
#203 = LOCAL_TIME ( 10, 19, 23.00000000000000000, #114 ) ;
#204 = CARTESIAN_POINT ( 'NONE',  ( -9.000000000000007100, 15.00000000000000400, 2.000000000000000000 ) ) ;
#205 = DIRECTION ( 'NONE',  ( -0.0000000000000000000, 0.0000000000000000000, 1.000000000000000000 ) ) ;
#206 = CARTESIAN_POINT ( 'NONE',  ( 8.999999999999992900, 15.00000000000000400, 0.0000000000000000000 ) ) ;
#207 = VERTEX_POINT ( 'NONE', #93 ) ;
#208 = CC_DESIGN_PERSON_AND_ORGANIZATION_ASSIGNMENT ( #162, #198, ( #195 ) ) ;
#209 = ORIENTED_EDGE ( 'NONE', *, *, #3, .F. ) ;
#210 = CARTESIAN_POINT ( 'NONE',  ( -9.000000000000003600, -14.99999999999999600, 2.000000000000000000 ) ) ;
#211 = CARTESIAN_POINT ( 'NONE',  ( -9.000000000000003600, -14.99999999999999600, 2.000000000000000000 ) ) ;
#212 = CALENDAR_DATE ( 2017, 31, 1 ) ;
#213 = EDGE_CURVE ( 'NONE', #183, #167, #233, .T. ) ;
#214 = COORDINATED_UNIVERSAL_TIME_OFFSET ( 5, 0, .BEHIND. ) ;
#215 = APPROVAL ( #72, 'UNSPECIFIED' ) ;
#216 = PERSON_AND_ORGANIZATION_ROLE ( 'creator' ) ;
#217 = DATE_TIME_ROLE ( 'classification_date' ) ;
#218 = FACE_OUTER_BOUND ( 'NONE', #74, .T. ) ;
#219 = COORDINATED_UNIVERSAL_TIME_OFFSET ( 5, 0, .BEHIND. ) ;
#220 = ORIENTED_EDGE ( 'NONE', *, *, #73, .T. ) ;
#221 = CARTESIAN_POINT ( 'NONE',  ( -9.000000000000003600, -14.99999999999999600, 0.0000000000000000000 ) ) ;
#222 = DIRECTION ( 'NONE',  ( -0.0000000000000000000, -0.0000000000000000000, -1.000000000000000000 ) ) ;
#223 = EDGE_CURVE ( 'NONE', #183, #61, #41, .T. ) ;
#224 = VECTOR ( 'NONE', #22, 1000.000000000000000 ) ;
#225 =( LENGTH_UNIT ( ) NAMED_UNIT ( * ) SI_UNIT ( .MILLI., .METRE. ) );
#226 = ORIENTED_EDGE ( 'NONE', *, *, #223, .F. ) ;
#227 = CARTESIAN_POINT ( 'NONE',  ( -9.000000000000007100, 15.00000000000000400, 0.0000000000000000000 ) ) ;
#228 = DIRECTION ( 'NONE',  ( 1.000000000000000000, 0.0000000000000000000, 0.0000000000000000000 ) ) ;
#229 = CC_DESIGN_DATE_AND_TIME_ASSIGNMENT ( #102, #217, ( #195 ) ) ;
#230 = PERSON_AND_ORGANIZATION_ROLE ( 'design_owner' ) ;
#231 = VECTOR ( 'NONE', #222, 1000.000000000000000 ) ;
#232 = FACE_OUTER_BOUND ( 'NONE', #112, .T. ) ;
#233 = LINE ( 'NONE', #211, #99 ) ;
#234 = APPROVAL_STATUS ( 'not_yet_approved' ) ;
#235 =( GEOMETRIC_REPRESENTATION_CONTEXT ( 3 ) GLOBAL_UNCERTAINTY_ASSIGNED_CONTEXT ( ( #202 ) ) GLOBAL_UNIT_ASSIGNED_CONTEXT ( ( #225, #27, #109 ) ) REPRESENTATION_CONTEXT ( 'NONE', 'WORKASPACE' ) );
#236 = ORIENTED_EDGE ( 'NONE', *, *, #148, .F. ) ;
#237 = SHAPE_DEFINITION_REPRESENTATION ( #1, #94 ) ;
ENDSEC;
END-ISO-10303-21;
