ISO-10303-21;
HEADER;
FILE_DESCRIPTION (( 'STEP AP203' ),
    '1' );
FILE_NAME ('34525_Default.step',
    '2017-06-22T15:01:18',
    ( '' ),
    ( '' ),
    'SwSTEP 2.0',
    'SolidWorks 2016',
    '' );
FILE_SCHEMA (( 'CONFIG_CONTROL_DESIGN' ));
ENDSEC;

DATA;
#1 = APPLICATION_PROTOCOL_DEFINITION ( 'international standard', 'config_control_design', 1994, #88 ) ;
#2 = DIRECTION ( 'NONE',  ( -0.0000000000000000000, -0.0000000000000000000, -1.000000000000000000 ) ) ;
#3 = PLANE ( 'NONE',  #89 ) ;
#4 = CC_DESIGN_APPROVAL ( #43, ( #23 ) ) ;
#5 = PERSON_AND_ORGANIZATION_ROLE ( 'creator' ) ;
#6 = APPROVAL_ROLE ( '' ) ;
#7 = EDGE_CURVE ( 'NONE', #73, #144, #31, .T. ) ;
#8 = AXIS2_PLACEMENT_3D ( 'NONE', #117, #168, #95 ) ;
#9 = CIRCLE ( 'NONE', #63, 7.500000000000000000 ) ;
#10 = DATE_TIME_ROLE ( 'creation_date' ) ;
#11 = DIRECTION ( 'NONE',  ( 1.000000000000000000, 0.0000000000000000000, -0.0000000000000000000 ) ) ;
#12 = COORDINATED_UNIVERSAL_TIME_OFFSET ( 5, 0, .BEHIND. ) ;
#13 = PERSON_AND_ORGANIZATION_ROLE ( 'design_owner' ) ;
#14 = CARTESIAN_POINT ( 'NONE',  ( -7.500000000000000000, 0.0000000000000000000, 0.5500000000000000400 ) ) ;
#15 = ADVANCED_FACE ( 'NONE', ( #108 ), #151, .T. ) ;
#16 = DATE_AND_TIME ( #163, #91 ) ;
#17 = CC_DESIGN_PERSON_AND_ORGANIZATION_ASSIGNMENT ( #56, #5, ( #23 ) ) ;
#18 = FACE_OUTER_BOUND ( 'NONE', #62, .T. ) ;
#19 = PERSON_AND_ORGANIZATION ( #101, #135 ) ;
#20 = DIRECTION ( 'NONE',  ( -0.0000000000000000000, -0.0000000000000000000, -1.000000000000000000 ) ) ;
#21 = FACE_OUTER_BOUND ( 'NONE', #149, .T. ) ;
#22 = CARTESIAN_POINT ( 'NONE',  ( 7.500000000000000000, 9.184850993605147900E-016, 0.5500000000000000400 ) ) ;
#23 = PRODUCT_DEFINITION_FORMATION_WITH_SPECIFIED_SOURCE ( 'ANY', '', #80, .NOT_KNOWN. ) ;
#24 = DIRECTION ( 'NONE',  ( 1.000000000000000000, 0.0000000000000000000, -0.0000000000000000000 ) ) ;
#25 = SECURITY_CLASSIFICATION_LEVEL ( 'unclassified' ) ;
#26 = MECHANICAL_CONTEXT ( 'NONE', #47, 'mechanical' ) ;
#27 = ORIENTED_EDGE ( 'NONE', *, *, #85, .T. ) ;
#28 = DATE_TIME_ROLE ( 'classification_date' ) ;
#29 = ORIENTED_EDGE ( 'NONE', *, *, #115, .T. ) ;
#30 = APPROVAL_DATE_TIME ( #16, #119 ) ;
#31 = CIRCLE ( 'NONE', #82, 7.500000000000000000 ) ;
#32 = APPROVAL_DATE_TIME ( #59, #43 ) ;
#33 = ORIENTED_EDGE ( 'NONE', *, *, #7, .F. ) ;
#34 = DIRECTION ( 'NONE',  ( 0.0000000000000000000, 0.0000000000000000000, 1.000000000000000000 ) ) ;
#35 = APPROVAL ( #96, 'UNSPECIFIED' ) ;
#36 = DIRECTION ( 'NONE',  ( 1.000000000000000000, 0.0000000000000000000, 0.0000000000000000000 ) ) ;
#37 = CARTESIAN_POINT ( 'NONE',  ( -7.500000000000000000, 0.0000000000000000000, 0.5500000000000000400 ) ) ;
#38 =( NAMED_UNIT ( * ) SI_UNIT ( $, .STERADIAN. ) SOLID_ANGLE_UNIT ( ) );
#39 = APPROVAL_DATE_TIME ( #121, #35 ) ;
#40 = AXIS2_PLACEMENT_3D ( 'NONE', #77, #90, #162 ) ;
#41 = COORDINATED_UNIVERSAL_TIME_OFFSET ( 5, 0, .BEHIND. ) ;
#42 = ORIENTED_EDGE ( 'NONE', *, *, #7, .T. ) ;
#43 = APPROVAL ( #143, 'UNSPECIFIED' ) ;
#44 = PERSON_AND_ORGANIZATION ( #101, #135 ) ;
#45 = DIRECTION ( 'NONE',  ( 0.0000000000000000000, 0.0000000000000000000, 1.000000000000000000 ) ) ;
#46 = EDGE_CURVE ( 'NONE', #171, #105, #9, .T. ) ;
#47 = APPLICATION_CONTEXT ( 'configuration controlled 3d designs of mechanical parts and assemblies' ) ;
#48 = SHAPE_DEFINITION_REPRESENTATION ( #84, #69 ) ;
#49 = DIRECTION ( 'NONE',  ( 0.0000000000000000000, 0.0000000000000000000, 1.000000000000000000 ) ) ;
#50 = EDGE_CURVE ( 'NONE', #144, #171, #118, .T. ) ;
#51 = PLANE ( 'NONE',  #68 ) ;
#52 = CC_DESIGN_PERSON_AND_ORGANIZATION_ASSIGNMENT ( #111, #126, ( #146 ) ) ;
#53 = LOCAL_TIME ( 11, 1, 18.00000000000000000, #136 ) ;
#54 = CARTESIAN_POINT ( 'NONE',  ( 0.0000000000000000000, 0.0000000000000000000, -0.5500000000000000400 ) ) ;
#55 = AXIS2_PLACEMENT_3D ( 'NONE', #54, #34, #93 ) ;
#56 = PERSON_AND_ORGANIZATION ( #101, #135 ) ;
#57 = LOCAL_TIME ( 11, 1, 18.00000000000000000, #102 ) ;
#58 = CARTESIAN_POINT ( 'NONE',  ( -7.500000000000000000, 0.0000000000000000000, -0.5500000000000000400 ) ) ;
#59 = DATE_AND_TIME ( #98, #53 ) ;
#60 = DIRECTION ( 'NONE',  ( -1.000000000000000000, 0.0000000000000000000, 0.0000000000000000000 ) ) ;
#61 = CARTESIAN_POINT ( 'NONE',  ( 7.500000000000000000, 9.184850993605147900E-016, 0.5500000000000000400 ) ) ;
#62 = EDGE_LOOP ( 'NONE', ( #123, #33, #27, #29 ) ) ;
#63 = AXIS2_PLACEMENT_3D ( 'NONE', #134, #122, #64 ) ;
#64 = DIRECTION ( 'NONE',  ( 1.000000000000000000, 0.0000000000000000000, 0.0000000000000000000 ) ) ;
#65 = VECTOR ( 'NONE', #2, 1000.000000000000000 ) ;
#66 = CIRCLE ( 'NONE', #40, 7.500000000000000000 ) ;
#67 = LOCAL_TIME ( 11, 1, 18.00000000000000000, #41 ) ;
#68 = AXIS2_PLACEMENT_3D ( 'NONE', #124, #75, #24 ) ;
#69 = ADVANCED_BREP_SHAPE_REPRESENTATION ( '34525_Default', ( #127, #8 ), #155 ) ;
#70 = CC_DESIGN_APPROVAL ( #35, ( #94 ) ) ;
#71 = CIRCLE ( 'NONE', #55, 7.500000000000000000 ) ;
#72 = CARTESIAN_POINT ( 'NONE',  ( 0.0000000000000000000, 0.0000000000000000000, -0.5500000000000000400 ) ) ;
#73 = VERTEX_POINT ( 'NONE', #37 ) ;
#74 = CC_DESIGN_APPROVAL ( #119, ( #146 ) ) ;
#75 = DIRECTION ( 'NONE',  ( 0.0000000000000000000, 0.0000000000000000000, 1.000000000000000000 ) ) ;
#76 = ADVANCED_FACE ( 'NONE', ( #18 ), #137, .T. ) ;
#77 = CARTESIAN_POINT ( 'NONE',  ( 0.0000000000000000000, 0.0000000000000000000, 0.5500000000000000400 ) ) ;
#78 = DATE_AND_TIME ( #140, #67 ) ;
#79 = PRODUCT_RELATED_PRODUCT_CATEGORY ( 'detail', '', ( #80 ) ) ;
#80 = PRODUCT ( '34525_Default', '34525_Default', '', ( #26 ) ) ;
#81 = CALENDAR_DATE ( 2017, 22, 6 ) ;
#82 = AXIS2_PLACEMENT_3D ( 'NONE', #156, #45, #36 ) ;
#83 = DIRECTION ( 'NONE',  ( -0.0000000000000000000, -0.0000000000000000000, -1.000000000000000000 ) ) ;
#84 = PRODUCT_DEFINITION_SHAPE ( 'NONE', 'NONE',  #146 ) ;
#85 = EDGE_CURVE ( 'NONE', #73, #105, #133, .T. ) ;
#86 = COORDINATED_UNIVERSAL_TIME_OFFSET ( 5, 0, .BEHIND. ) ;
#87 = EDGE_LOOP ( 'NONE', ( #42, #131 ) ) ;
#88 = APPLICATION_CONTEXT ( 'configuration controlled 3d designs of mechanical parts and assemblies' ) ;
#89 = AXIS2_PLACEMENT_3D ( 'NONE', #72, #49, #11 ) ;
#90 = DIRECTION ( 'NONE',  ( 0.0000000000000000000, 0.0000000000000000000, 1.000000000000000000 ) ) ;
#91 = LOCAL_TIME ( 11, 1, 18.00000000000000000, #86 ) ;
#92 = ADVANCED_FACE ( 'NONE', ( #21 ), #3, .F. ) ;
#93 = DIRECTION ( 'NONE',  ( 1.000000000000000000, 0.0000000000000000000, 0.0000000000000000000 ) ) ;
#94 = SECURITY_CLASSIFICATION ( '', '', #25 ) ;
#95 = DIRECTION ( 'NONE',  ( 1.000000000000000000, 0.0000000000000000000, 0.0000000000000000000 ) ) ;
#96 = APPROVAL_STATUS ( 'not_yet_approved' ) ;
#97 = PERSON_AND_ORGANIZATION ( #101, #135 ) ;
#98 = CALENDAR_DATE ( 2017, 22, 6 ) ;
#99 = PERSON_AND_ORGANIZATION ( #101, #135 ) ;
#100 = CC_DESIGN_PERSON_AND_ORGANIZATION_ASSIGNMENT ( #157, #13, ( #80 ) ) ;
#101 = PERSON ( 'UNSPECIFIED', 'UNSPECIFIED', 'UNSPECIFIED', ('UNSPECIFIED'), ('UNSPECIFIED'), ('UNSPECIFIED') ) ;
#102 = COORDINATED_UNIVERSAL_TIME_OFFSET ( 5, 0, .BEHIND. ) ;
#103 =( NAMED_UNIT ( * ) PLANE_ANGLE_UNIT ( ) SI_UNIT ( $, .RADIAN. ) );
#104 = ORIENTED_EDGE ( 'NONE', *, *, #85, .F. ) ;
#105 = VERTEX_POINT ( 'NONE', #58 ) ;
#106 = PERSON_AND_ORGANIZATION_ROLE ( 'design_supplier' ) ;
#107 = CC_DESIGN_DATE_AND_TIME_ASSIGNMENT ( #110, #10, ( #146 ) ) ;
#108 = FACE_OUTER_BOUND ( 'NONE', #175, .T. ) ;
#109 = AXIS2_PLACEMENT_3D ( 'NONE', #125, #132, #166 ) ;
#110 = DATE_AND_TIME ( #154, #57 ) ;
#111 = PERSON_AND_ORGANIZATION ( #101, #135 ) ;
#112 = PERSON_AND_ORGANIZATION_ROLE ( 'classification_officer' ) ;
#113 =( LENGTH_UNIT ( ) NAMED_UNIT ( * ) SI_UNIT ( .MILLI., .METRE. ) );
#114 = ORIENTED_EDGE ( 'NONE', *, *, #50, .T. ) ;
#115 = EDGE_CURVE ( 'NONE', #105, #171, #71, .T. ) ;
#116 = APPLICATION_PROTOCOL_DEFINITION ( 'international standard', 'config_control_design', 1994, #47 ) ;
#117 = CARTESIAN_POINT ( 'NONE',  ( 0.0000000000000000000, 0.0000000000000000000, 0.0000000000000000000 ) ) ;
#118 = LINE ( 'NONE', #61, #139 ) ;
#119 = APPROVAL ( #128, 'UNSPECIFIED' ) ;
#120 = APPROVAL_ROLE ( '' ) ;
#121 = DATE_AND_TIME ( #81, #141 ) ;
#122 = DIRECTION ( 'NONE',  ( 0.0000000000000000000, 0.0000000000000000000, 1.000000000000000000 ) ) ;
#123 = ORIENTED_EDGE ( 'NONE', *, *, #50, .F. ) ;
#124 = CARTESIAN_POINT ( 'NONE',  ( 0.0000000000000000000, 0.0000000000000000000, 0.5500000000000000400 ) ) ;
#125 = CARTESIAN_POINT ( 'NONE',  ( 0.0000000000000000000, 0.0000000000000000000, 0.5500000000000000400 ) ) ;
#126 = PERSON_AND_ORGANIZATION_ROLE ( 'creator' ) ;
#127 = MANIFOLD_SOLID_BREP ( 'Boss-Extrude1', #170 ) ;
#128 = APPROVAL_STATUS ( 'not_yet_approved' ) ;
#129 = CC_DESIGN_DATE_AND_TIME_ASSIGNMENT ( #78, #28, ( #94 ) ) ;
#130 = APPROVAL_PERSON_ORGANIZATION ( #19, #43, #120 ) ;
#131 = ORIENTED_EDGE ( 'NONE', *, *, #164, .T. ) ;
#132 = DIRECTION ( 'NONE',  ( -0.0000000000000000000, -0.0000000000000000000, -1.000000000000000000 ) ) ;
#133 = LINE ( 'NONE', #14, #65 ) ;
#134 = CARTESIAN_POINT ( 'NONE',  ( 0.0000000000000000000, 0.0000000000000000000, -0.5500000000000000400 ) ) ;
#135 = ORGANIZATION ( 'UNSPECIFIED', 'UNSPECIFIED', '' ) ;
#136 = COORDINATED_UNIVERSAL_TIME_OFFSET ( 5, 0, .BEHIND. ) ;
#137 = CYLINDRICAL_SURFACE ( 'NONE', #167, 7.500000000000000000 ) ;
#138 = CARTESIAN_POINT ( 'NONE',  ( 0.0000000000000000000, 0.0000000000000000000, 0.5500000000000000400 ) ) ;
#139 = VECTOR ( 'NONE', #83, 1000.000000000000000 ) ;
#140 = CALENDAR_DATE ( 2017, 22, 6 ) ;
#141 = LOCAL_TIME ( 11, 1, 18.00000000000000000, #12 ) ;
#142 = CARTESIAN_POINT ( 'NONE',  ( 7.500000000000000000, 9.184850993605147900E-016, -0.5500000000000000400 ) ) ;
#143 = APPROVAL_STATUS ( 'not_yet_approved' ) ;
#144 = VERTEX_POINT ( 'NONE', #22 ) ;
#145 = APPROVAL_PERSON_ORGANIZATION ( #44, #35, #6 ) ;
#146 = PRODUCT_DEFINITION ( 'UNKNOWN', '', #23, #165 ) ;
#147 = FACE_OUTER_BOUND ( 'NONE', #87, .T. ) ;
#148 = ADVANCED_FACE ( 'NONE', ( #147 ), #51, .T. ) ;
#149 = EDGE_LOOP ( 'NONE', ( #173, #169 ) ) ;
#150 = APPROVAL_ROLE ( '' ) ;
#151 = CYLINDRICAL_SURFACE ( 'NONE', #109, 7.500000000000000000 ) ;
#152 = ORIENTED_EDGE ( 'NONE', *, *, #164, .F. ) ;
#153 = CC_DESIGN_SECURITY_CLASSIFICATION ( #94, ( #23 ) ) ;
#154 = CALENDAR_DATE ( 2017, 22, 6 ) ;
#155 =( GEOMETRIC_REPRESENTATION_CONTEXT ( 3 ) GLOBAL_UNCERTAINTY_ASSIGNED_CONTEXT ( ( #158 ) ) GLOBAL_UNIT_ASSIGNED_CONTEXT ( ( #113, #103, #38 ) ) REPRESENTATION_CONTEXT ( 'NONE', 'WORKASPACE' ) );
#156 = CARTESIAN_POINT ( 'NONE',  ( 0.0000000000000000000, 0.0000000000000000000, 0.5500000000000000400 ) ) ;
#157 = PERSON_AND_ORGANIZATION ( #101, #135 ) ;
#158 = UNCERTAINTY_MEASURE_WITH_UNIT (LENGTH_MEASURE( 1.000000000000000100E-005 ), #113, 'distance_accuracy_value', 'NONE');
#159 = PERSON_AND_ORGANIZATION ( #101, #135 ) ;
#160 = CC_DESIGN_PERSON_AND_ORGANIZATION_ASSIGNMENT ( #159, #112, ( #94 ) ) ;
#161 = APPROVAL_PERSON_ORGANIZATION ( #97, #119, #150 ) ;
#162 = DIRECTION ( 'NONE',  ( 1.000000000000000000, 0.0000000000000000000, 0.0000000000000000000 ) ) ;
#163 = CALENDAR_DATE ( 2017, 22, 6 ) ;
#164 = EDGE_CURVE ( 'NONE', #144, #73, #66, .T. ) ;
#165 = DESIGN_CONTEXT ( 'detailed design', #88, 'design' ) ;
#166 = DIRECTION ( 'NONE',  ( -1.000000000000000000, 0.0000000000000000000, 0.0000000000000000000 ) ) ;
#167 = AXIS2_PLACEMENT_3D ( 'NONE', #138, #20, #60 ) ;
#168 = DIRECTION ( 'NONE',  ( 0.0000000000000000000, 0.0000000000000000000, 1.000000000000000000 ) ) ;
#169 = ORIENTED_EDGE ( 'NONE', *, *, #46, .F. ) ;
#170 = CLOSED_SHELL ( 'NONE', ( #15, #76, #148, #92 ) ) ;
#171 = VERTEX_POINT ( 'NONE', #142 ) ;
#172 = CC_DESIGN_PERSON_AND_ORGANIZATION_ASSIGNMENT ( #99, #106, ( #23 ) ) ;
#173 = ORIENTED_EDGE ( 'NONE', *, *, #115, .F. ) ;
#174 = ORIENTED_EDGE ( 'NONE', *, *, #46, .T. ) ;
#175 = EDGE_LOOP ( 'NONE', ( #152, #114, #174, #104 ) ) ;
ENDSEC;
END-ISO-10303-21;
