ISO-10303-21;
HEADER;
FILE_DESCRIPTION (( 'STEP AP203' ),
    '1' );
FILE_NAME ('Web Model 11856_11859.step',
    '2019-01-10T19:38:11',
    ( '' ),
    ( '' ),
    'SwSTEP 2.0',
    'SolidWorks 2016',
    '' );
FILE_SCHEMA (( 'CONFIG_CONTROL_DESIGN' ));
ENDSEC;

DATA;
#1 = AXIS2_PLACEMENT_3D ( 'NONE', #246, #176, #13 ) ;
#2 = LINE ( 'NONE', #8, #213 ) ;
#3 = COORDINATED_UNIVERSAL_TIME_OFFSET ( 5, 0, .BEHIND. ) ;
#4 = ORIENTED_EDGE ( 'NONE', *, *, #54, .T. ) ;
#5 = DIRECTION ( 'NONE',  ( 1.000000000000000000, -0.0000000000000000000, -0.0000000000000000000 ) ) ;
#6 = CIRCLE ( 'NONE', #170, 50.00000000000000000 ) ;
#7 = ORIENTED_EDGE ( 'NONE', *, *, #33, .T. ) ;
#8 = CARTESIAN_POINT ( 'NONE',  ( 3.000000000000000000, 6.092617825758085500E-015, -49.75000000000002800 ) ) ;
#9 = ADVANCED_FACE ( 'NONE', ( #121 ), #161, .T. ) ;
#10 = DIRECTION ( 'NONE',  ( -1.000000000000000000, -0.0000000000000000000, -0.0000000000000000000 ) ) ;
#11 = CARTESIAN_POINT ( 'NONE',  ( 3.000000000000000000, 0.0000000000000000000, 0.0000000000000000000 ) ) ;
#12 = DIRECTION ( 'NONE',  ( 0.0000000000000000000, 0.0000000000000000000, -1.000000000000000000 ) ) ;
#13 = DIRECTION ( 'NONE',  ( 0.0000000000000000000, 0.0000000000000000000, -1.000000000000000000 ) ) ;
#14 = CC_DESIGN_PERSON_AND_ORGANIZATION_ASSIGNMENT ( #62, #198, ( #78 ) ) ;
#15 = APPLICATION_PROTOCOL_DEFINITION ( 'international standard', 'config_control_design', 1994, #203 ) ;
#16 = CARTESIAN_POINT ( 'NONE',  ( 0.0000000000000000000, 0.0000000000000000000, 0.0000000000000000000 ) ) ;
#17 = CIRCLE ( 'NONE', #57, 49.75000000000000700 ) ;
#18 = FACE_OUTER_BOUND ( 'NONE', #177, .T. ) ;
#19 = VECTOR ( 'NONE', #84, 1000.000000000000000 ) ;
#20 = CLOSED_SHELL ( 'NONE', ( #9, #216, #106, #188, #64, #193, #48, #241 ) ) ;
#21 = PERSON_AND_ORGANIZATION ( #232, #263 ) ;
#22 = CARTESIAN_POINT ( 'NONE',  ( -2.750000000000006700, 6.123233995736766100E-015, -50.00000000000000000 ) ) ;
#23 = VERTEX_POINT ( 'NONE', #22 ) ;
#24 = PRODUCT_DEFINITION ( 'UNKNOWN', '', #199, #261 ) ;
#25 = LOCAL_TIME ( 14, 38, 11.00000000000000000, #224 ) ;
#26 = DIRECTION ( 'NONE',  ( -0.7071067811865574500, 8.659560562354813300E-017, -0.7071067811865376900 ) ) ;
#27 = EDGE_LOOP ( 'NONE', ( #148, #113 ) ) ;
#28 = DIRECTION ( 'NONE',  ( 0.0000000000000000000, 0.0000000000000000000, -1.000000000000000000 ) ) ;
#29 = DIRECTION ( 'NONE',  ( 0.0000000000000000000, 0.0000000000000000000, -1.000000000000000000 ) ) ;
#30 = DIRECTION ( 'NONE',  ( 0.7071067811865474600, 8.659560562354932900E-017, 0.7071067811865474600 ) ) ;
#31 = DIRECTION ( 'NONE',  ( 1.000000000000000000, 0.0000000000000000000, 0.0000000000000000000 ) ) ;
#32 = APPROVAL_ROLE ( '' ) ;
#33 = EDGE_CURVE ( 'NONE', #107, #61, #255, .T. ) ;
#34 = CALENDAR_DATE ( 2019, 10, 1 ) ;
#35 = LINE ( 'NONE', #49, #50 ) ;
#36 = AXIS2_PLACEMENT_3D ( 'NONE', #116, #96, #68 ) ;
#37 = ORIENTED_EDGE ( 'NONE', *, *, #183, .F. ) ;
#38 = CALENDAR_DATE ( 2019, 10, 1 ) ;
#39 = CYLINDRICAL_SURFACE ( 'NONE', #80, 50.00000000000000000 ) ;
#40 = AXIS2_PLACEMENT_3D ( 'NONE', #82, #5, #102 ) ;
#41 = DIRECTION ( 'NONE',  ( -1.000000000000000000, 0.0000000000000000000, 0.0000000000000000000 ) ) ;
#42 = EDGE_CURVE ( 'NONE', #236, #107, #6, .T. ) ;
#43 = CC_DESIGN_APPROVAL ( #223, ( #24 ) ) ;
#44 = APPROVAL_DATE_TIME ( #175, #223 ) ;
#45 = LINE ( 'NONE', #127, #137 ) ;
#46 = ORIENTED_EDGE ( 'NONE', *, *, #138, .T. ) ;
#47 = DIRECTION ( 'NONE',  ( 0.0000000000000000000, 0.0000000000000000000, 1.000000000000000000 ) ) ;
#48 = ADVANCED_FACE ( 'NONE', ( #77 ), #271, .T. ) ;
#49 = CARTESIAN_POINT ( 'NONE',  ( -2.750000000000006700, 6.123233995736766100E-015, 50.00000000000000000 ) ) ;
#50 = VECTOR ( 'NONE', #30, 1000.000000000000100 ) ;
#51 = CARTESIAN_POINT ( 'NONE',  ( -2.750000000000006700, 0.0000000000000000000, 0.0000000000000000000 ) ) ;
#52 = DIRECTION ( 'NONE',  ( 1.000000000000000000, -0.0000000000000000000, -0.0000000000000000000 ) ) ;
#53 = ORIENTED_EDGE ( 'NONE', *, *, #158, .F. ) ;
#54 = EDGE_CURVE ( 'NONE', #141, #124, #103, .T. ) ;
#55 = MECHANICAL_CONTEXT ( 'NONE', #254, 'mechanical' ) ;
#56 = PERSON_AND_ORGANIZATION_ROLE ( 'creator' ) ;
#57 = AXIS2_PLACEMENT_3D ( 'NONE', #88, #10, #28 ) ;
#58 = EDGE_CURVE ( 'NONE', #141, #236, #2, .T. ) ;
#59 = VERTEX_POINT ( 'NONE', #123 ) ;
#60 = ORIENTED_EDGE ( 'NONE', *, *, #237, .T. ) ;
#61 = VERTEX_POINT ( 'NONE', #186 ) ;
#62 = PERSON_AND_ORGANIZATION ( #232, #263 ) ;
#63 = CARTESIAN_POINT ( 'NONE',  ( 3.000000000000000000, 0.0000000000000000000, 0.0000000000000000000 ) ) ;
#64 = ADVANCED_FACE ( 'NONE', ( #154 ), #248, .T. ) ;
#65 = UNCERTAINTY_MEASURE_WITH_UNIT (LENGTH_MEASURE( 1.000000000000000100E-005 ), #249, 'distance_accuracy_value', 'NONE');
#66 = PLANE ( 'NONE',  #1 ) ;
#67 = DIRECTION ( 'NONE',  ( 1.000000000000000000, -0.0000000000000000000, -0.0000000000000000000 ) ) ;
#68 = DIRECTION ( 'NONE',  ( 0.0000000000000000000, 0.0000000000000000000, 1.000000000000000000 ) ) ;
#69 = SECURITY_CLASSIFICATION_LEVEL ( 'unclassified' ) ;
#70 = PRODUCT_RELATED_PRODUCT_CATEGORY ( 'detail', '', ( #274 ) ) ;
#71 = ORIENTED_EDGE ( 'NONE', *, *, #158, .T. ) ;
#72 = CALENDAR_DATE ( 2019, 10, 1 ) ;
#73 = APPROVAL_STATUS ( 'not_yet_approved' ) ;
#74 = FACE_OUTER_BOUND ( 'NONE', #75, .T. ) ;
#75 = EDGE_LOOP ( 'NONE', ( #167, #206, #168, #53 ) ) ;
#76 = ORIENTED_EDGE ( 'NONE', *, *, #119, .F. ) ;
#77 = FACE_OUTER_BOUND ( 'NONE', #83, .T. ) ;
#78 = SECURITY_CLASSIFICATION ( '', '', #69 ) ;
#79 = DIRECTION ( 'NONE',  ( 0.0000000000000000000, 0.0000000000000000000, 1.000000000000000000 ) ) ;
#80 = AXIS2_PLACEMENT_3D ( 'NONE', #105, #86, #47 ) ;
#81 = CARTESIAN_POINT ( 'NONE',  ( 3.000000000000000000, 0.0000000000000000000, 0.0000000000000000000 ) ) ;
#82 = CARTESIAN_POINT ( 'NONE',  ( -2.750000000000006700, 0.0000000000000000000, 0.0000000000000000000 ) ) ;
#83 = EDGE_LOOP ( 'NONE', ( #76, #37, #71, #101 ) ) ;
#84 = DIRECTION ( 'NONE',  ( -1.000000000000000000, -0.0000000000000000000, -0.0000000000000000000 ) ) ;
#85 = CARTESIAN_POINT ( 'NONE',  ( 2.750000000000020900, 0.0000000000000000000, 0.0000000000000000000 ) ) ;
#86 = DIRECTION ( 'NONE',  ( -1.000000000000000000, -0.0000000000000000000, -0.0000000000000000000 ) ) ;
#87 = APPROVAL_DATE_TIME ( #262, #215 ) ;
#88 = CARTESIAN_POINT ( 'NONE',  ( -3.000000000000000000, 0.0000000000000000000, 0.0000000000000000000 ) ) ;
#89 = APPROVAL_DATE_TIME ( #181, #190 ) ;
#90 =( GEOMETRIC_REPRESENTATION_CONTEXT ( 3 ) GLOBAL_UNCERTAINTY_ASSIGNED_CONTEXT ( ( #65 ) ) GLOBAL_UNIT_ASSIGNED_CONTEXT ( ( #249, #267, #118 ) ) REPRESENTATION_CONTEXT ( 'NONE', 'WORKASPACE' ) );
#91 = CARTESIAN_POINT ( 'NONE',  ( -3.000000000000000000, 6.107925910747424200E-015, 49.75000000000000700 ) ) ;
#92 = CARTESIAN_POINT ( 'NONE',  ( 3.000000000000000000, 0.0000000000000000000, 0.0000000000000000000 ) ) ;
#93 = DATE_AND_TIME ( #159, #25 ) ;
#94 = EDGE_CURVE ( 'NONE', #124, #107, #208, .T. ) ;
#95 = CALENDAR_DATE ( 2019, 10, 1 ) ;
#96 = DIRECTION ( 'NONE',  ( -1.000000000000000000, 0.0000000000000000000, 0.0000000000000000000 ) ) ;
#97 = VECTOR ( 'NONE', #150, 1000.000000000000100 ) ;
#98 = LOCAL_TIME ( 14, 38, 11.00000000000000000, #144 ) ;
#99 = ORIENTED_EDGE ( 'NONE', *, *, #54, .F. ) ;
#100 = APPROVAL_PERSON_ORGANIZATION ( #230, #223, #228 ) ;
#101 = ORIENTED_EDGE ( 'NONE', *, *, #138, .F. ) ;
#102 = DIRECTION ( 'NONE',  ( 0.0000000000000000000, 0.0000000000000000000, -1.000000000000000000 ) ) ;
#103 = CIRCLE ( 'NONE', #218, 49.75000000000002800 ) ;
#104 = ORIENTED_EDGE ( 'NONE', *, *, #209, .T. ) ;
#105 = CARTESIAN_POINT ( 'NONE',  ( 3.000000000000000000, 0.0000000000000000000, 0.0000000000000000000 ) ) ;
#106 = ADVANCED_FACE ( 'NONE', ( #220 ), #231, .T. ) ;
#107 = VERTEX_POINT ( 'NONE', #151 ) ;
#108 = DIRECTION ( 'NONE',  ( 0.0000000000000000000, 0.0000000000000000000, -1.000000000000000000 ) ) ;
#109 = DIRECTION ( 'NONE',  ( -1.000000000000000000, -0.0000000000000000000, -0.0000000000000000000 ) ) ;
#110 = DIRECTION ( 'NONE',  ( 1.000000000000000000, -0.0000000000000000000, -0.0000000000000000000 ) ) ;
#111 = DIRECTION ( 'NONE',  ( 0.0000000000000000000, 0.0000000000000000000, -1.000000000000000000 ) ) ;
#112 = ORIENTED_EDGE ( 'NONE', *, *, #237, .F. ) ;
#113 = ORIENTED_EDGE ( 'NONE', *, *, #172, .T. ) ;
#114 = COORDINATED_UNIVERSAL_TIME_OFFSET ( 5, 0, .BEHIND. ) ;
#115 = PRODUCT_DEFINITION_SHAPE ( 'NONE', 'NONE',  #24 ) ;
#116 = CARTESIAN_POINT ( 'NONE',  ( 3.000000000000000000, 0.0000000000000000000, 0.0000000000000000000 ) ) ;
#117 = SHAPE_DEFINITION_REPRESENTATION ( #115, #204 ) ;
#118 =( NAMED_UNIT ( * ) SI_UNIT ( $, .STERADIAN. ) SOLID_ANGLE_UNIT ( ) );
#119 = EDGE_CURVE ( 'NONE', #221, #61, #35, .T. ) ;
#120 = CIRCLE ( 'NONE', #178, 50.00000000000000000 ) ;
#121 = FACE_OUTER_BOUND ( 'NONE', #251, .T. ) ;
#122 = PERSON_AND_ORGANIZATION ( #232, #263 ) ;
#123 = CARTESIAN_POINT ( 'NONE',  ( -3.000000000000000000, 0.0000000000000000000, -49.75000000000000700 ) ) ;
#124 = VERTEX_POINT ( 'NONE', #266 ) ;
#125 = CC_DESIGN_PERSON_AND_ORGANIZATION_ASSIGNMENT ( #126, #179, ( #274 ) ) ;
#126 = PERSON_AND_ORGANIZATION ( #232, #263 ) ;
#127 = CARTESIAN_POINT ( 'NONE',  ( 3.000000000000000000, 6.123233995736766100E-015, -50.00000000000000000 ) ) ;
#128 = EDGE_LOOP ( 'NONE', ( #104, #182, #135, #162 ) ) ;
#129 = DIRECTION ( 'NONE',  ( -1.000000000000000000, -0.0000000000000000000, -0.0000000000000000000 ) ) ;
#130 = DIRECTION ( 'NONE',  ( -0.7071067811865574500, 0.0000000000000000000, 0.7071067811865376900 ) ) ;
#131 = APPROVAL_STATUS ( 'not_yet_approved' ) ;
#132 = APPLICATION_PROTOCOL_DEFINITION ( 'international standard', 'config_control_design', 1994, #254 ) ;
#133 = DATE_TIME_ROLE ( 'classification_date' ) ;
#134 = EDGE_CURVE ( 'NONE', #23, #61, #211, .T. ) ;
#135 = ORIENTED_EDGE ( 'NONE', *, *, #134, .T. ) ;
#136 = PERSON_AND_ORGANIZATION ( #232, #263 ) ;
#137 = VECTOR ( 'NONE', #109, 1000.000000000000000 ) ;
#138 = EDGE_CURVE ( 'NONE', #61, #23, #120, .T. ) ;
#139 = CC_DESIGN_PERSON_AND_ORGANIZATION_ASSIGNMENT ( #189, #200, ( #24 ) ) ;
#140 = APPROVAL_PERSON_ORGANIZATION ( #21, #215, #32 ) ;
#141 = VERTEX_POINT ( 'NONE', #252 ) ;
#142 = PERSON_AND_ORGANIZATION ( #232, #263 ) ;
#143 = DIRECTION ( 'NONE',  ( 0.0000000000000000000, 0.0000000000000000000, -1.000000000000000000 ) ) ;
#144 = COORDINATED_UNIVERSAL_TIME_OFFSET ( 5, 0, .BEHIND. ) ;
#145 = AXIS2_PLACEMENT_3D ( 'NONE', #16, #273, #270 ) ;
#146 = CARTESIAN_POINT ( 'NONE',  ( 3.000000000000000000, 0.0000000000000000000, 50.00000000000000000 ) ) ;
#147 = VECTOR ( 'NONE', #130, 999.9999999999998900 ) ;
#148 = ORIENTED_EDGE ( 'NONE', *, *, #183, .T. ) ;
#149 = DIRECTION ( 'NONE',  ( 0.0000000000000000000, 0.0000000000000000000, -1.000000000000000000 ) ) ;
#150 = DIRECTION ( 'NONE',  ( 0.7071067811865474600, 0.0000000000000000000, -0.7071067811865474600 ) ) ;
#151 = CARTESIAN_POINT ( 'NONE',  ( 2.750000000000020900, 0.0000000000000000000, 50.00000000000000000 ) ) ;
#152 = EDGE_CURVE ( 'NONE', #236, #23, #45, .T. ) ;
#153 = CC_DESIGN_DATE_AND_TIME_ASSIGNMENT ( #93, #235, ( #24 ) ) ;
#154 = FACE_OUTER_BOUND ( 'NONE', #250, .T. ) ;
#155 = MANIFOLD_SOLID_BREP ( 'Chamfer1', #20 ) ;
#156 = CARTESIAN_POINT ( 'NONE',  ( 3.000000000000000000, 0.0000000000000000000, 0.0000000000000000000 ) ) ;
#157 = ORIENTED_EDGE ( 'NONE', *, *, #152, .F. ) ;
#158 = EDGE_CURVE ( 'NONE', #59, #23, #196, .T. ) ;
#159 = CALENDAR_DATE ( 2019, 10, 1 ) ;
#160 = FACE_OUTER_BOUND ( 'NONE', #27, .T. ) ;
#161 = CONICAL_SURFACE ( 'NONE', #259, 49.75000000000002800, 0.7853981633974344000 ) ;
#162 = ORIENTED_EDGE ( 'NONE', *, *, #33, .F. ) ;
#163 = DATE_AND_TIME ( #72, #240 ) ;
#164 = ORIENTED_EDGE ( 'NONE', *, *, #94, .T. ) ;
#165 = DIRECTION ( 'NONE',  ( 0.0000000000000000000, 0.0000000000000000000, -1.000000000000000000 ) ) ;
#166 = CIRCLE ( 'NONE', #169, 50.00000000000000000 ) ;
#167 = ORIENTED_EDGE ( 'NONE', *, *, #172, .F. ) ;
#168 = ORIENTED_EDGE ( 'NONE', *, *, #134, .F. ) ;
#169 = AXIS2_PLACEMENT_3D ( 'NONE', #85, #245, #29 ) ;
#170 = AXIS2_PLACEMENT_3D ( 'NONE', #243, #191, #165 ) ;
#171 = DIRECTION ( 'NONE',  ( -1.000000000000000000, -0.0000000000000000000, -0.0000000000000000000 ) ) ;
#172 = EDGE_CURVE ( 'NONE', #221, #59, #17, .T. ) ;
#173 = CARTESIAN_POINT ( 'NONE',  ( -3.000000000000000000, 0.0000000000000000000, 0.0000000000000000000 ) ) ;
#174 = CARTESIAN_POINT ( 'NONE',  ( -2.750000000000006700, 0.0000000000000000000, 0.0000000000000000000 ) ) ;
#175 = DATE_AND_TIME ( #38, #210 ) ;
#176 = DIRECTION ( 'NONE',  ( 1.000000000000000000, 0.0000000000000000000, 0.0000000000000000000 ) ) ;
#177 = EDGE_LOOP ( 'NONE', ( #202, #112, #164, #233 ) ) ;
#178 = AXIS2_PLACEMENT_3D ( 'NONE', #174, #52, #268 ) ;
#179 = PERSON_AND_ORGANIZATION_ROLE ( 'design_owner' ) ;
#180 = CC_DESIGN_SECURITY_CLASSIFICATION ( #78, ( #199 ) ) ;
#181 = DATE_AND_TIME ( #95, #98 ) ;
#182 = ORIENTED_EDGE ( 'NONE', *, *, #152, .T. ) ;
#183 = EDGE_CURVE ( 'NONE', #59, #221, #242, .T. ) ;
#184 = AXIS2_PLACEMENT_3D ( 'NONE', #51, #67, #108 ) ;
#185 = ORIENTED_EDGE ( 'NONE', *, *, #42, .T. ) ;
#186 = CARTESIAN_POINT ( 'NONE',  ( -2.750000000000006700, 0.0000000000000000000, 50.00000000000000000 ) ) ;
#187 = FACE_OUTER_BOUND ( 'NONE', #214, .T. ) ;
#188 = ADVANCED_FACE ( 'NONE', ( #187 ), #39, .T. ) ;
#189 = PERSON_AND_ORGANIZATION ( #232, #263 ) ;
#190 = APPROVAL ( #226, 'UNSPECIFIED' ) ;
#191 = DIRECTION ( 'NONE',  ( -1.000000000000000000, 0.0000000000000000000, 0.0000000000000000000 ) ) ;
#192 = DIRECTION ( 'NONE',  ( 1.000000000000000000, 0.0000000000000000000, 0.0000000000000000000 ) ) ;
#193 = ADVANCED_FACE ( 'NONE', ( #160 ), #66, .F. ) ;
#194 = COORDINATED_UNIVERSAL_TIME_OFFSET ( 5, 0, .BEHIND. ) ;
#195 = DIRECTION ( 'NONE',  ( 0.0000000000000000000, 0.0000000000000000000, 1.000000000000000000 ) ) ;
#196 = LINE ( 'NONE', #269, #97 ) ;
#197 = AXIS2_PLACEMENT_3D ( 'NONE', #92, #192, #12 ) ;
#198 = PERSON_AND_ORGANIZATION_ROLE ( 'classification_officer' ) ;
#199 = PRODUCT_DEFINITION_FORMATION_WITH_SPECIFIED_SOURCE ( 'ANY', '', #274, .NOT_KNOWN. ) ;
#200 = PERSON_AND_ORGANIZATION_ROLE ( 'creator' ) ;
#201 = ORIENTED_EDGE ( 'NONE', *, *, #209, .F. ) ;
#202 = ORIENTED_EDGE ( 'NONE', *, *, #58, .F. ) ;
#203 = APPLICATION_CONTEXT ( 'configuration controlled 3d designs of mechanical parts and assemblies' ) ;
#204 = ADVANCED_BREP_SHAPE_REPRESENTATION ( 'Web Model 11856_11859', ( #155, #145 ), #90 ) ;
#205 = LOCAL_TIME ( 14, 38, 11.00000000000000000, #194 ) ;
#206 = ORIENTED_EDGE ( 'NONE', *, *, #119, .T. ) ;
#207 = AXIS2_PLACEMENT_3D ( 'NONE', #173, #129, #149 ) ;
#208 = LINE ( 'NONE', #219, #147 ) ;
#209 = EDGE_CURVE ( 'NONE', #107, #236, #166, .T. ) ;
#210 = LOCAL_TIME ( 14, 38, 11.00000000000000000, #3 ) ;
#211 = CIRCLE ( 'NONE', #257, 50.00000000000000000 ) ;
#212 = CC_DESIGN_APPROVAL ( #190, ( #78 ) ) ;
#213 = VECTOR ( 'NONE', #26, 999.9999999999998900 ) ;
#214 = EDGE_LOOP ( 'NONE', ( #157, #185, #7, #46 ) ) ;
#215 = APPROVAL ( #131, 'UNSPECIFIED' ) ;
#216 = ADVANCED_FACE ( 'NONE', ( #74 ), #260, .T. ) ;
#217 = DIRECTION ( 'NONE',  ( 1.000000000000000000, 0.0000000000000000000, 0.0000000000000000000 ) ) ;
#218 = AXIS2_PLACEMENT_3D ( 'NONE', #63, #217, #143 ) ;
#219 = CARTESIAN_POINT ( 'NONE',  ( 3.000000000000000000, 0.0000000000000000000, 49.75000000000002800 ) ) ;
#220 = FACE_OUTER_BOUND ( 'NONE', #128, .T. ) ;
#221 = VERTEX_POINT ( 'NONE', #91 ) ;
#222 = CARTESIAN_POINT ( 'NONE',  ( -2.750000000000006700, 0.0000000000000000000, 0.0000000000000000000 ) ) ;
#223 = APPROVAL ( #73, 'UNSPECIFIED' ) ;
#224 = COORDINATED_UNIVERSAL_TIME_OFFSET ( 5, 0, .BEHIND. ) ;
#225 = CIRCLE ( 'NONE', #247, 49.75000000000002800 ) ;
#226 = APPROVAL_STATUS ( 'not_yet_approved' ) ;
#227 = CC_DESIGN_DATE_AND_TIME_ASSIGNMENT ( #163, #133, ( #78 ) ) ;
#228 = APPROVAL_ROLE ( '' ) ;
#229 = DIRECTION ( 'NONE',  ( 0.0000000000000000000, 0.0000000000000000000, -1.000000000000000000 ) ) ;
#230 = PERSON_AND_ORGANIZATION ( #232, #263 ) ;
#231 = CYLINDRICAL_SURFACE ( 'NONE', #265, 50.00000000000000000 ) ;
#232 = PERSON ( 'UNSPECIFIED', 'UNSPECIFIED', 'UNSPECIFIED', ('UNSPECIFIED'), ('UNSPECIFIED'), ('UNSPECIFIED') ) ;
#233 = ORIENTED_EDGE ( 'NONE', *, *, #42, .F. ) ;
#234 = APPROVAL_PERSON_ORGANIZATION ( #122, #190, #258 ) ;
#235 = DATE_TIME_ROLE ( 'creation_date' ) ;
#236 = VERTEX_POINT ( 'NONE', #256 ) ;
#237 = EDGE_CURVE ( 'NONE', #124, #141, #225, .T. ) ;
#238 = CC_DESIGN_APPROVAL ( #215, ( #199 ) ) ;
#239 = CONICAL_SURFACE ( 'NONE', #36, 49.75000000000002800, 0.7853981633974344000 ) ;
#240 = LOCAL_TIME ( 14, 38, 11.00000000000000000, #114 ) ;
#241 = ADVANCED_FACE ( 'NONE', ( #18 ), #239, .T. ) ;
#242 = CIRCLE ( 'NONE', #207, 49.75000000000000700 ) ;
#243 = CARTESIAN_POINT ( 'NONE',  ( 2.750000000000020900, 0.0000000000000000000, 0.0000000000000000000 ) ) ;
#244 = ORIENTED_EDGE ( 'NONE', *, *, #94, .F. ) ;
#245 = DIRECTION ( 'NONE',  ( -1.000000000000000000, 0.0000000000000000000, 0.0000000000000000000 ) ) ;
#246 = CARTESIAN_POINT ( 'NONE',  ( -3.000000000000000000, 0.0000000000000000000, 0.0000000000000000000 ) ) ;
#247 = AXIS2_PLACEMENT_3D ( 'NONE', #156, #31, #229 ) ;
#248 = PLANE ( 'NONE',  #197 ) ;
#249 =( LENGTH_UNIT ( ) NAMED_UNIT ( * ) SI_UNIT ( .MILLI., .METRE. ) );
#250 = EDGE_LOOP ( 'NONE', ( #60, #4 ) ) ;
#251 = EDGE_LOOP ( 'NONE', ( #99, #272, #201, #244 ) ) ;
#252 = CARTESIAN_POINT ( 'NONE',  ( 3.000000000000000000, 6.107925910747425800E-015, -49.75000000000002800 ) ) ;
#253 = CC_DESIGN_PERSON_AND_ORGANIZATION_ASSIGNMENT ( #142, #56, ( #199 ) ) ;
#254 = APPLICATION_CONTEXT ( 'configuration controlled 3d designs of mechanical parts and assemblies' ) ;
#255 = LINE ( 'NONE', #146, #19 ) ;
#256 = CARTESIAN_POINT ( 'NONE',  ( 2.750000000000020900, 6.123233995736766100E-015, -50.00000000000000000 ) ) ;
#257 = AXIS2_PLACEMENT_3D ( 'NONE', #222, #110, #111 ) ;
#258 = APPROVAL_ROLE ( '' ) ;
#259 = AXIS2_PLACEMENT_3D ( 'NONE', #81, #41, #79 ) ;
#260 = CONICAL_SURFACE ( 'NONE', #184, 50.00000000000000000, 0.7853981633974482800 ) ;
#261 = DESIGN_CONTEXT ( 'detailed design', #203, 'design' ) ;
#262 = DATE_AND_TIME ( #34, #205 ) ;
#263 = ORGANIZATION ( 'UNSPECIFIED', 'UNSPECIFIED', '' ) ;
#264 = CC_DESIGN_PERSON_AND_ORGANIZATION_ASSIGNMENT ( #136, #275, ( #199 ) ) ;
#265 = AXIS2_PLACEMENT_3D ( 'NONE', #11, #171, #195 ) ;
#266 = CARTESIAN_POINT ( 'NONE',  ( 3.000000000000000000, 0.0000000000000000000, 49.75000000000002800 ) ) ;
#267 =( NAMED_UNIT ( * ) PLANE_ANGLE_UNIT ( ) SI_UNIT ( $, .RADIAN. ) );
#268 = DIRECTION ( 'NONE',  ( 0.0000000000000000000, 0.0000000000000000000, -1.000000000000000000 ) ) ;
#269 = CARTESIAN_POINT ( 'NONE',  ( -2.750000000000006700, 0.0000000000000000000, -50.00000000000000000 ) ) ;
#270 = DIRECTION ( 'NONE',  ( 1.000000000000000000, 0.0000000000000000000, 0.0000000000000000000 ) ) ;
#271 = CONICAL_SURFACE ( 'NONE', #40, 50.00000000000000000, 0.7853981633974482800 ) ;
#272 = ORIENTED_EDGE ( 'NONE', *, *, #58, .T. ) ;
#273 = DIRECTION ( 'NONE',  ( 0.0000000000000000000, 0.0000000000000000000, 1.000000000000000000 ) ) ;
#274 = PRODUCT ( 'Web Model 11856_11859', 'Web Model 11856_11859', '', ( #55 ) ) ;
#275 = PERSON_AND_ORGANIZATION_ROLE ( 'design_supplier' ) ;
ENDSEC;
END-ISO-10303-21;
