ISO-10303-21;
HEADER;
FILE_DESCRIPTION (( 'STEP AP203' ),
    '1' );
FILE_NAME ('Web Model 45309_36970.step',
    '2019-01-07T15:44:38',
    ( '' ),
    ( '' ),
    'SwSTEP 2.0',
    'SolidWorks 2016',
    '' );
FILE_SCHEMA (( 'CONFIG_CONTROL_DESIGN' ));
ENDSEC;

DATA;
#1 = APPROVAL ( #34, 'UNSPECIFIED' ) ;
#2 = CARTESIAN_POINT ( 'NONE',  ( 0.0000000000000000000, 0.0000000000000000000, -1.000000000000000000 ) ) ;
#3 = PERSON_AND_ORGANIZATION ( #121, #27 ) ;
#4 = APPROVAL ( #158, 'UNSPECIFIED' ) ;
#5 = PERSON_AND_ORGANIZATION_ROLE ( 'design_owner' ) ;
#6 = CC_DESIGN_PERSON_AND_ORGANIZATION_ASSIGNMENT ( #162, #125, ( #161 ) ) ;
#7 = AXIS2_PLACEMENT_3D ( 'NONE', #94, #42, #99 ) ;
#8 = LOCAL_TIME ( 10, 44, 38.00000000000000000, #109 ) ;
#9 = CARTESIAN_POINT ( 'NONE',  ( 0.0000000000000000000, 0.0000000000000000000, 0.0000000000000000000 ) ) ;
#10 = LINE ( 'NONE', #130, #144 ) ;
#11 = ORIENTED_EDGE ( 'NONE', *, *, #76, .T. ) ;
#12 = CYLINDRICAL_SURFACE ( 'NONE', #45, 6.250000000000000000 ) ;
#13 = CARTESIAN_POINT ( 'NONE',  ( 0.0000000000000000000, 0.0000000000000000000, -1.000000000000000000 ) ) ;
#14 = APPROVAL ( #86, 'UNSPECIFIED' ) ;
#15 = CARTESIAN_POINT ( 'NONE',  ( 6.250000000000000000, 7.654042494670957600E-016, 1.000000000000000000 ) ) ;
#16 = APPROVAL_ROLE ( '' ) ;
#17 = APPROVAL_DATE_TIME ( #59, #1 ) ;
#18 =( NAMED_UNIT ( * ) PLANE_ANGLE_UNIT ( ) SI_UNIT ( $, .RADIAN. ) );
#19 = ORIENTED_EDGE ( 'NONE', *, *, #66, .F. ) ;
#20 = PERSON_AND_ORGANIZATION_ROLE ( 'design_supplier' ) ;
#21 = CYLINDRICAL_SURFACE ( 'NONE', #25, 6.250000000000000000 ) ;
#22 = ADVANCED_FACE ( 'NONE', ( #68 ), #12, .T. ) ;
#23 = EDGE_LOOP ( 'NONE', ( #114, #38 ) ) ;
#24 = DATE_AND_TIME ( #33, #72 ) ;
#25 = AXIS2_PLACEMENT_3D ( 'NONE', #154, #54, #98 ) ;
#26 = APPROVAL_DATE_TIME ( #137, #14 ) ;
#27 = ORGANIZATION ( 'UNSPECIFIED', 'UNSPECIFIED', '' ) ;
#28 = DIRECTION ( 'NONE',  ( 0.0000000000000000000, 0.0000000000000000000, 1.000000000000000000 ) ) ;
#29 = CC_DESIGN_APPROVAL ( #1, ( #152 ) ) ;
#30 = ORIENTED_EDGE ( 'NONE', *, *, #50, .T. ) ;
#31 = PLANE ( 'NONE',  #46 ) ;
#32 = EDGE_CURVE ( 'NONE', #41, #78, #127, .T. ) ;
#33 = CALENDAR_DATE ( 2019, 7, 1 ) ;
#34 = APPROVAL_STATUS ( 'not_yet_approved' ) ;
#35 = PERSON_AND_ORGANIZATION_ROLE ( 'classification_officer' ) ;
#36 = UNCERTAINTY_MEASURE_WITH_UNIT (LENGTH_MEASURE( 1.000000000000000100E-005 ), #69, 'distance_accuracy_value', 'NONE');
#37 = CC_DESIGN_PERSON_AND_ORGANIZATION_ASSIGNMENT ( #155, #35, ( #67 ) ) ;
#38 = ORIENTED_EDGE ( 'NONE', *, *, #96, .T. ) ;
#39 = DIRECTION ( 'NONE',  ( 0.0000000000000000000, 0.0000000000000000000, 1.000000000000000000 ) ) ;
#40 = PERSON_AND_ORGANIZATION ( #121, #27 ) ;
#41 = VERTEX_POINT ( 'NONE', #75 ) ;
#42 = DIRECTION ( 'NONE',  ( 0.0000000000000000000, 0.0000000000000000000, 1.000000000000000000 ) ) ;
#43 = CC_DESIGN_PERSON_AND_ORGANIZATION_ASSIGNMENT ( #40, #142, ( #152 ) ) ;
#44 = SHAPE_DEFINITION_REPRESENTATION ( #126, #143 ) ;
#45 = AXIS2_PLACEMENT_3D ( 'NONE', #62, #63, #149 ) ;
#46 = AXIS2_PLACEMENT_3D ( 'NONE', #153, #28, #110 ) ;
#47 = APPROVAL_PERSON_ORGANIZATION ( #122, #4, #16 ) ;
#48 = CIRCLE ( 'NONE', #88, 6.250000000000000000 ) ;
#49 = SECURITY_CLASSIFICATION_LEVEL ( 'unclassified' ) ;
#50 = EDGE_CURVE ( 'NONE', #78, #164, #84, .T. ) ;
#51 = APPROVAL_PERSON_ORGANIZATION ( #128, #14, #157 ) ;
#52 = APPLICATION_PROTOCOL_DEFINITION ( 'international standard', 'config_control_design', 1994, #53 ) ;
#53 = APPLICATION_CONTEXT ( 'configuration controlled 3d designs of mechanical parts and assemblies' ) ;
#54 = DIRECTION ( 'NONE',  ( -0.0000000000000000000, -0.0000000000000000000, -1.000000000000000000 ) ) ;
#55 = VECTOR ( 'NONE', #79, 1000.000000000000000 ) ;
#56 = CC_DESIGN_APPROVAL ( #4, ( #161 ) ) ;
#57 = PERSON_AND_ORGANIZATION ( #121, #27 ) ;
#58 = PRODUCT ( 'Web Model 45309_36970', 'Web Model 45309_36970', '', ( #93 ) ) ;
#59 = DATE_AND_TIME ( #100, #111 ) ;
#60 = VERTEX_POINT ( 'NONE', #15 ) ;
#61 = EDGE_CURVE ( 'NONE', #41, #60, #48, .T. ) ;
#62 = CARTESIAN_POINT ( 'NONE',  ( 0.0000000000000000000, 0.0000000000000000000, 1.000000000000000000 ) ) ;
#63 = DIRECTION ( 'NONE',  ( -0.0000000000000000000, -0.0000000000000000000, -1.000000000000000000 ) ) ;
#64 = CC_DESIGN_PERSON_AND_ORGANIZATION_ASSIGNMENT ( #57, #20, ( #161 ) ) ;
#65 = DIRECTION ( 'NONE',  ( 1.000000000000000000, 0.0000000000000000000, 0.0000000000000000000 ) ) ;
#66 = EDGE_CURVE ( 'NONE', #164, #78, #87, .T. ) ;
#67 = SECURITY_CLASSIFICATION ( '', '', #49 ) ;
#68 = FACE_OUTER_BOUND ( 'NONE', #80, .T. ) ;
#69 =( LENGTH_UNIT ( ) NAMED_UNIT ( * ) SI_UNIT ( .MILLI., .METRE. ) );
#70 = APPLICATION_PROTOCOL_DEFINITION ( 'international standard', 'config_control_design', 1994, #118 ) ;
#71 = DIRECTION ( 'NONE',  ( 1.000000000000000000, 0.0000000000000000000, 0.0000000000000000000 ) ) ;
#72 = LOCAL_TIME ( 10, 44, 38.00000000000000000, #105 ) ;
#73 = ADVANCED_FACE ( 'NONE', ( #163 ), #31, .T. ) ;
#74 = ORIENTED_EDGE ( 'NONE', *, *, #50, .F. ) ;
#75 = CARTESIAN_POINT ( 'NONE',  ( -6.250000000000000000, 0.0000000000000000000, 1.000000000000000000 ) ) ;
#76 = EDGE_CURVE ( 'NONE', #60, #164, #10, .T. ) ;
#77 = CARTESIAN_POINT ( 'NONE',  ( 0.0000000000000000000, 0.0000000000000000000, 1.000000000000000000 ) ) ;
#78 = VERTEX_POINT ( 'NONE', #136 ) ;
#79 = DIRECTION ( 'NONE',  ( -0.0000000000000000000, -0.0000000000000000000, -1.000000000000000000 ) ) ;
#80 = EDGE_LOOP ( 'NONE', ( #140, #11, #112, #89 ) ) ;
#81 = EDGE_LOOP ( 'NONE', ( #115, #151, #129, #30 ) ) ;
#82 = CARTESIAN_POINT ( 'NONE',  ( 0.0000000000000000000, 0.0000000000000000000, 1.000000000000000000 ) ) ;
#83 = CALENDAR_DATE ( 2019, 7, 1 ) ;
#84 = CIRCLE ( 'NONE', #148, 6.250000000000000000 ) ;
#85 = CLOSED_SHELL ( 'NONE', ( #22, #103, #73, #101 ) ) ;
#86 = APPROVAL_STATUS ( 'not_yet_approved' ) ;
#87 = CIRCLE ( 'NONE', #102, 6.250000000000000000 ) ;
#88 = AXIS2_PLACEMENT_3D ( 'NONE', #77, #107, #117 ) ;
#89 = ORIENTED_EDGE ( 'NONE', *, *, #32, .F. ) ;
#90 = CC_DESIGN_DATE_AND_TIME_ASSIGNMENT ( #24, #166, ( #152 ) ) ;
#91 = COORDINATED_UNIVERSAL_TIME_OFFSET ( 5, 0, .BEHIND. ) ;
#92 = CARTESIAN_POINT ( 'NONE',  ( -6.250000000000000000, 0.0000000000000000000, 1.000000000000000000 ) ) ;
#93 = MECHANICAL_CONTEXT ( 'NONE', #53, 'mechanical' ) ;
#94 = CARTESIAN_POINT ( 'NONE',  ( 0.0000000000000000000, 0.0000000000000000000, -1.000000000000000000 ) ) ;
#95 = DATE_AND_TIME ( #104, #8 ) ;
#96 = EDGE_CURVE ( 'NONE', #60, #41, #156, .T. ) ;
#97 = DIRECTION ( 'NONE',  ( 0.0000000000000000000, 0.0000000000000000000, 1.000000000000000000 ) ) ;
#98 = DIRECTION ( 'NONE',  ( -1.000000000000000000, 0.0000000000000000000, 0.0000000000000000000 ) ) ;
#99 = DIRECTION ( 'NONE',  ( 1.000000000000000000, 0.0000000000000000000, -0.0000000000000000000 ) ) ;
#100 = CALENDAR_DATE ( 2019, 7, 1 ) ;
#101 = ADVANCED_FACE ( 'NONE', ( #147 ), #145, .F. ) ;
#102 = AXIS2_PLACEMENT_3D ( 'NONE', #13, #150, #165 ) ;
#103 = ADVANCED_FACE ( 'NONE', ( #170 ), #21, .T. ) ;
#104 = CALENDAR_DATE ( 2019, 7, 1 ) ;
#105 = COORDINATED_UNIVERSAL_TIME_OFFSET ( 5, 0, .BEHIND. ) ;
#106 = DIRECTION ( 'NONE',  ( 0.0000000000000000000, 0.0000000000000000000, 1.000000000000000000 ) ) ;
#107 = DIRECTION ( 'NONE',  ( 0.0000000000000000000, 0.0000000000000000000, 1.000000000000000000 ) ) ;
#108 = APPROVAL_ROLE ( '' ) ;
#109 = COORDINATED_UNIVERSAL_TIME_OFFSET ( 5, 0, .BEHIND. ) ;
#110 = DIRECTION ( 'NONE',  ( 1.000000000000000000, 0.0000000000000000000, -0.0000000000000000000 ) ) ;
#111 = LOCAL_TIME ( 10, 44, 38.00000000000000000, #134 ) ;
#112 = ORIENTED_EDGE ( 'NONE', *, *, #66, .T. ) ;
#113 = CC_DESIGN_APPROVAL ( #14, ( #67 ) ) ;
#114 = ORIENTED_EDGE ( 'NONE', *, *, #61, .T. ) ;
#115 = ORIENTED_EDGE ( 'NONE', *, *, #76, .F. ) ;
#116 = LOCAL_TIME ( 10, 44, 38.00000000000000000, #91 ) ;
#117 = DIRECTION ( 'NONE',  ( 1.000000000000000000, 0.0000000000000000000, 0.0000000000000000000 ) ) ;
#118 = APPLICATION_CONTEXT ( 'configuration controlled 3d designs of mechanical parts and assemblies' ) ;
#119 = AXIS2_PLACEMENT_3D ( 'NONE', #82, #97, #132 ) ;
#120 = DATE_TIME_ROLE ( 'classification_date' ) ;
#121 = PERSON ( 'UNSPECIFIED', 'UNSPECIFIED', 'UNSPECIFIED', ('UNSPECIFIED'), ('UNSPECIFIED'), ('UNSPECIFIED') ) ;
#122 = PERSON_AND_ORGANIZATION ( #121, #27 ) ;
#123 = DESIGN_CONTEXT ( 'detailed design', #118, 'design' ) ;
#124 = AXIS2_PLACEMENT_3D ( 'NONE', #9, #39, #71 ) ;
#125 = PERSON_AND_ORGANIZATION_ROLE ( 'creator' ) ;
#126 = PRODUCT_DEFINITION_SHAPE ( 'NONE', 'NONE',  #152 ) ;
#127 = LINE ( 'NONE', #92, #55 ) ;
#128 = PERSON_AND_ORGANIZATION ( #121, #27 ) ;
#129 = ORIENTED_EDGE ( 'NONE', *, *, #32, .T. ) ;
#130 = CARTESIAN_POINT ( 'NONE',  ( 6.250000000000000000, 7.654042494670957600E-016, 1.000000000000000000 ) ) ;
#131 = CC_DESIGN_SECURITY_CLASSIFICATION ( #67, ( #161 ) ) ;
#132 = DIRECTION ( 'NONE',  ( 1.000000000000000000, 0.0000000000000000000, 0.0000000000000000000 ) ) ;
#133 = CC_DESIGN_PERSON_AND_ORGANIZATION_ASSIGNMENT ( #3, #5, ( #58 ) ) ;
#134 = COORDINATED_UNIVERSAL_TIME_OFFSET ( 5, 0, .BEHIND. ) ;
#135 = DATE_AND_TIME ( #146, #174 ) ;
#136 = CARTESIAN_POINT ( 'NONE',  ( -6.250000000000000000, 0.0000000000000000000, -1.000000000000000000 ) ) ;
#137 = DATE_AND_TIME ( #83, #116 ) ;
#138 = APPROVAL_PERSON_ORGANIZATION ( #175, #1, #108 ) ;
#139 =( NAMED_UNIT ( * ) SI_UNIT ( $, .STERADIAN. ) SOLID_ANGLE_UNIT ( ) );
#140 = ORIENTED_EDGE ( 'NONE', *, *, #96, .F. ) ;
#141 = CC_DESIGN_DATE_AND_TIME_ASSIGNMENT ( #135, #120, ( #67 ) ) ;
#142 = PERSON_AND_ORGANIZATION_ROLE ( 'creator' ) ;
#143 = ADVANCED_BREP_SHAPE_REPRESENTATION ( 'Web Model 45309_36970', ( #171, #124 ), #160 ) ;
#144 = VECTOR ( 'NONE', #167, 1000.000000000000000 ) ;
#145 = PLANE ( 'NONE',  #7 ) ;
#146 = CALENDAR_DATE ( 2019, 7, 1 ) ;
#147 = FACE_OUTER_BOUND ( 'NONE', #173, .T. ) ;
#148 = AXIS2_PLACEMENT_3D ( 'NONE', #2, #106, #65 ) ;
#149 = DIRECTION ( 'NONE',  ( -1.000000000000000000, 0.0000000000000000000, 0.0000000000000000000 ) ) ;
#150 = DIRECTION ( 'NONE',  ( 0.0000000000000000000, 0.0000000000000000000, 1.000000000000000000 ) ) ;
#151 = ORIENTED_EDGE ( 'NONE', *, *, #61, .F. ) ;
#152 = PRODUCT_DEFINITION ( 'UNKNOWN', '', #161, #123 ) ;
#153 = CARTESIAN_POINT ( 'NONE',  ( 0.0000000000000000000, 0.0000000000000000000, 1.000000000000000000 ) ) ;
#154 = CARTESIAN_POINT ( 'NONE',  ( 0.0000000000000000000, 0.0000000000000000000, 1.000000000000000000 ) ) ;
#155 = PERSON_AND_ORGANIZATION ( #121, #27 ) ;
#156 = CIRCLE ( 'NONE', #119, 6.250000000000000000 ) ;
#157 = APPROVAL_ROLE ( '' ) ;
#158 = APPROVAL_STATUS ( 'not_yet_approved' ) ;
#159 = PRODUCT_RELATED_PRODUCT_CATEGORY ( 'detail', '', ( #58 ) ) ;
#160 =( GEOMETRIC_REPRESENTATION_CONTEXT ( 3 ) GLOBAL_UNCERTAINTY_ASSIGNED_CONTEXT ( ( #36 ) ) GLOBAL_UNIT_ASSIGNED_CONTEXT ( ( #69, #18, #139 ) ) REPRESENTATION_CONTEXT ( 'NONE', 'WORKASPACE' ) );
#161 = PRODUCT_DEFINITION_FORMATION_WITH_SPECIFIED_SOURCE ( 'ANY', '', #58, .NOT_KNOWN. ) ;
#162 = PERSON_AND_ORGANIZATION ( #121, #27 ) ;
#163 = FACE_OUTER_BOUND ( 'NONE', #23, .T. ) ;
#164 = VERTEX_POINT ( 'NONE', #168 ) ;
#165 = DIRECTION ( 'NONE',  ( 1.000000000000000000, 0.0000000000000000000, 0.0000000000000000000 ) ) ;
#166 = DATE_TIME_ROLE ( 'creation_date' ) ;
#167 = DIRECTION ( 'NONE',  ( -0.0000000000000000000, -0.0000000000000000000, -1.000000000000000000 ) ) ;
#168 = CARTESIAN_POINT ( 'NONE',  ( 6.250000000000000000, 7.654042494670957600E-016, -1.000000000000000000 ) ) ;
#169 = APPROVAL_DATE_TIME ( #95, #4 ) ;
#170 = FACE_OUTER_BOUND ( 'NONE', #81, .T. ) ;
#171 = MANIFOLD_SOLID_BREP ( 'Boss-Extrude1', #85 ) ;
#172 = COORDINATED_UNIVERSAL_TIME_OFFSET ( 5, 0, .BEHIND. ) ;
#173 = EDGE_LOOP ( 'NONE', ( #74, #19 ) ) ;
#174 = LOCAL_TIME ( 10, 44, 38.00000000000000000, #172 ) ;
#175 = PERSON_AND_ORGANIZATION ( #121, #27 ) ;
ENDSEC;
END-ISO-10303-21;
