ISO-10303-21;
HEADER;
FILE_DESCRIPTION (( 'STEP AP203' ),
    '1' );
FILE_NAME ('25016-E0W.STEP',
    '2012-09-28T16:27:19',
    ( 'Admin' ),
    ( 'Thorlabs, Inc.' ),
    'SwSTEP 2.0',
    'SolidWorks 2011',
    '' );
FILE_SCHEMA (( 'CONFIG_CONTROL_DESIGN' ));
ENDSEC;

DATA;
#1 = COORDINATED_UNIVERSAL_TIME_OFFSET ( 5, 0, .BEHIND. ) ;
#2 = ORIENTED_EDGE ( 'NONE', *, *, #5, .T. ) ;
#3 = EDGE_LOOP ( 'NONE', ( #46, #49, #47, #15 ) ) ;
#4 = ORIENTED_EDGE ( 'NONE', *, *, #16, .T. ) ;
#5 = EDGE_CURVE ( 'NONE', #319, #81, #173, .T. ) ;
#6 = ORIENTED_EDGE ( 'NONE', *, *, #85, .T. ) ;
#7 = ORIENTED_EDGE ( 'NONE', *, *, #73, .F. ) ;
#8 = EDGE_CURVE ( 'NONE', #319, #318, #90, .T. ) ;
#9 = APPROVAL ( #68, 'UNSPECIFIED' ) ;
#10 = CLOSED_SHELL ( 'NONE', ( #42, #36, #308, #86, #71, #12, #43, #14, #72, #64 ) ) ;
#11 = PERSON_AND_ORGANIZATION ( #257, #256 ) ;
#12 = ADVANCED_FACE ( 'NONE', ( #108 ), #114, .T. ) ;
#13 = ORIENTED_EDGE ( 'NONE', *, *, #5, .F. ) ;
#14 = ADVANCED_FACE ( 'NONE', ( #175 ), #158, .T. ) ;
#15 = ORIENTED_EDGE ( 'NONE', *, *, #17, .F. ) ;
#16 = EDGE_CURVE ( 'NONE', #318, #319, #151, .T. ) ;
#17 = EDGE_CURVE ( 'NONE', #29, #312, #140, .T. ) ;
#18 = EDGE_LOOP ( 'NONE', ( #19, #50, #44, #45 ) ) ;
#19 = ORIENTED_EDGE ( 'NONE', *, *, #85, .F. ) ;
#20 = ORIENTED_EDGE ( 'NONE', *, *, #84, .F. ) ;
#21 = EDGE_LOOP ( 'NONE', ( #20, #4, #2 ) ) ;
#22 = EDGE_CURVE ( 'NONE', #307, #23, #96, .T. ) ;
#23 = VERTEX_POINT ( 'NONE', #117 ) ;
#24 = EDGE_CURVE ( 'NONE', #53, #307, #98, .T. ) ;
#25 = EDGE_CURVE ( 'NONE', #23, #29, #153, .T. ) ;
#26 = ORIENTED_EDGE ( 'NONE', *, *, #27, .T. ) ;
#27 = EDGE_CURVE ( 'NONE', #35, #23, #147, .T. ) ;
#28 = ORIENTED_EDGE ( 'NONE', *, *, #25, .T. ) ;
#29 = VERTEX_POINT ( 'NONE', #104 ) ;
#30 = EDGE_CURVE ( 'NONE', #53, #35, #139, .T. ) ;
#31 = ORIENTED_EDGE ( 'NONE', *, *, #30, .T. ) ;
#32 = EDGE_LOOP ( 'NONE', ( #61, #65, #57, #56 ) ) ;
#33 = ORIENTED_EDGE ( 'NONE', *, *, #30, .F. ) ;
#34 = EDGE_LOOP ( 'NONE', ( #31, #26, #311, #306 ) ) ;
#35 = VERTEX_POINT ( 'NONE', #118 ) ;
#36 = ADVANCED_FACE ( 'NONE', ( #142 ), #162, .T. ) ;
#37 = ORIENTED_EDGE ( 'NONE', *, *, #84, .T. ) ;
#38 = EDGE_CURVE ( 'NONE', #51, #35, #97, .T. ) ;
#39 = ORIENTED_EDGE ( 'NONE', *, *, #8, .T. ) ;
#40 = ORIENTED_EDGE ( 'NONE', *, *, #38, .T. ) ;
#41 = APPROVAL_ROLE ( '' ) ;
#42 = ADVANCED_FACE ( 'NONE', ( #132 ), #161, .T. ) ;
#43 = ADVANCED_FACE ( 'NONE', ( #93 ), #127, .T. ) ;
#44 = ORIENTED_EDGE ( 'NONE', *, *, #82, .T. ) ;
#45 = ORIENTED_EDGE ( 'NONE', *, *, #17, .T. ) ;
#46 = ORIENTED_EDGE ( 'NONE', *, *, #25, .F. ) ;
#47 = ORIENTED_EDGE ( 'NONE', *, *, #73, .T. ) ;
#48 = EDGE_CURVE ( 'NONE', #23, #307, #176, .T. ) ;
#49 = ORIENTED_EDGE ( 'NONE', *, *, #48, .T. ) ;
#50 = ORIENTED_EDGE ( 'NONE', *, *, #16, .F. ) ;
#51 = VERTEX_POINT ( 'NONE', #192 ) ;
#52 = ORIENTED_EDGE ( 'NONE', *, *, #55, .F. ) ;
#53 = VERTEX_POINT ( 'NONE', #191 ) ;
#54 = EDGE_LOOP ( 'NONE', ( #52, #40, #33 ) ) ;
#55 = EDGE_CURVE ( 'NONE', #51, #53, #327, .T. ) ;
#56 = ORIENTED_EDGE ( 'NONE', *, *, #48, .F. ) ;
#57 = ORIENTED_EDGE ( 'NONE', *, *, #24, .T. ) ;
#58 = ORIENTED_EDGE ( 'NONE', *, *, #55, .T. ) ;
#59 = MANIFOLD_SOLID_BREP ( '25016-001-1-solid1', #10 ) ;
#60 = EDGE_LOOP ( 'NONE', ( #63, #58, #62 ) ) ;
#61 = ORIENTED_EDGE ( 'NONE', *, *, #27, .F. ) ;
#62 = ORIENTED_EDGE ( 'NONE', *, *, #66, .F. ) ;
#63 = ORIENTED_EDGE ( 'NONE', *, *, #38, .F. ) ;
#64 = ADVANCED_FACE ( 'NONE', ( #273 ), #218, .T. ) ;
#65 = ORIENTED_EDGE ( 'NONE', *, *, #66, .T. ) ;
#66 = EDGE_CURVE ( 'NONE', #35, #53, #252, .T. ) ;
#67 = APPROVAL_PERSON_ORGANIZATION ( #11, #9, #41 ) ;
#68 = APPROVAL_STATUS ( 'not_yet_approved' ) ;
#69 = EDGE_LOOP ( 'NONE', ( #39, #37, #13 ) ) ;
#70 = ORIENTED_EDGE ( 'NONE', *, *, #82, .F. ) ;
#71 = ADVANCED_FACE ( 'NONE', ( #227 ), #215, .T. ) ;
#72 = ADVANCED_FACE ( 'NONE', ( #265 ), #266, .T. ) ;
#73 = EDGE_CURVE ( 'NONE', #307, #312, #277, .T. ) ;
#74 = CC_DESIGN_APPROVAL ( #9, ( #80 ) ) ;
#75 = APPROVAL_DATE_TIME ( #76, #9 ) ;
#76 = DATE_AND_TIME ( #77, #78 ) ;
#77 = CALENDAR_DATE ( 2012, 28, 9 ) ;
#78 = LOCAL_TIME ( 12, 27, 19.00000000000000000, #1 ) ;
#79 = EDGE_LOOP ( 'NONE', ( #87, #6, #83, #70 ) ) ;
#80 = PRODUCT_DEFINITION_FORMATION_WITH_SPECIFIED_SOURCE ( 'ANY', '', #258, .NOT_KNOWN. ) ;
#81 = VERTEX_POINT ( 'NONE', #228 ) ;
#82 = EDGE_CURVE ( 'NONE', #318, #29, #226, .T. ) ;
#83 = ORIENTED_EDGE ( 'NONE', *, *, #314, .T. ) ;
#84 = EDGE_CURVE ( 'NONE', #318, #81, #219, .T. ) ;
#85 = EDGE_CURVE ( 'NONE', #319, #312, #202, .T. ) ;
#86 = ADVANCED_FACE ( 'NONE', ( #204 ), #199, .T. ) ;
#87 = ORIENTED_EDGE ( 'NONE', *, *, #8, .F. ) ;
#88 = DIRECTION ( 'NONE',  ( 0.0000000000000000000, 0.0000000000000000000, -1.000000000000000000 ) ) ;
#89 = CARTESIAN_POINT ( 'NONE',  ( 27.29998022710108800, 0.03501313098570023300, 0.0000000000000000000 ) ) ;
#90 = CIRCLE ( 'NONE', #136, 12.55857864376269000 ) ;
#91 = DIRECTION ( 'NONE',  ( 1.707404996040164500E-016, -1.000000000000000000, 0.0000000000000000000 ) ) ;
#92 = DIRECTION ( 'NONE',  ( 1.899295172748518000E-016, -1.000000000000000000, 0.0000000000000000000 ) ) ;
#93 = FACE_OUTER_BOUND ( 'NONE', #18, .T. ) ;
#94 = DIRECTION ( 'NONE',  ( -1.000000000000000000, -1.836970198721029700E-016, -0.0000000000000000000 ) ) ;
#95 = CARTESIAN_POINT ( 'NONE',  ( -0.8852898261959992700, 5.170538707314839800E-016, 0.0000000000000000000 ) ) ;
#96 = CIRCLE ( 'NONE', #105, 12.69999999999999900 ) ;
#97 = CIRCLE ( 'NONE', #131, 31.00000000000000000 ) ;
#98 = LINE ( 'NONE', #115, #156 ) ;
#99 = DIRECTION ( 'NONE',  ( 1.878145495644181100E-016, -1.000000000000000000, 0.0000000000000000000 ) ) ;
#100 = DIRECTION ( 'NONE',  ( -1.000000000000000000, -1.836970198721029700E-016, -0.0000000000000000000 ) ) ;
#101 = CARTESIAN_POINT ( 'NONE',  ( 0.8852898261960040500, 8.423040763220788700E-016, 0.0000000000000000000 ) ) ;
#102 = AXIS2_PLACEMENT_3D ( 'NONE', #138, #168, #91 ) ;
#103 = AXIS2_PLACEMENT_3D ( 'NONE', #89, #88, #109 ) ;
#104 = CARTESIAN_POINT ( 'NONE',  ( -0.8852898261960016100, 12.69999999999999900, 0.0000000000000000000 ) ) ;
#105 = AXIS2_PLACEMENT_3D ( 'NONE', #101, #100, #99 ) ;
#106 = DIRECTION ( 'NONE',  ( 1.878145495644181100E-016, -1.000000000000000000, 0.0000000000000000000 ) ) ;
#107 = DIRECTION ( 'NONE',  ( 1.899295172748517300E-016, -1.000000000000000000, 0.0000000000000000000 ) ) ;
#108 = FACE_OUTER_BOUND ( 'NONE', #21, .T. ) ;
#109 = DIRECTION ( 'NONE',  ( -1.000000000000000000, 0.0000000000000000000, 0.0000000000000000000 ) ) ;
#110 = CC_DESIGN_PERSON_AND_ORGANIZATION_ASSIGNMENT ( #112, #111, ( #113 ) ) ;
#111 = PERSON_AND_ORGANIZATION_ROLE ( 'classification_officer' ) ;
#112 = PERSON_AND_ORGANIZATION ( #257, #256 ) ;
#113 = SECURITY_CLASSIFICATION ( '', '', #177 ) ;
#114 = TOROIDAL_SURFACE ( 'NONE', #126, -0.03501313098569453600, 31.00000000000000000 ) ;
#115 = CARTESIAN_POINT ( 'NONE',  ( 1.026711182433319500, -12.55857864376268300, 0.0000000000000000000 ) ) ;
#116 = AXIS2_PLACEMENT_3D ( 'NONE', #95, #94, #106 ) ;
#117 = CARTESIAN_POINT ( 'NONE',  ( 0.8852898261960016100, 12.69999999999999900, 1.555301434917138400E-015 ) ) ;
#118 = CARTESIAN_POINT ( 'NONE',  ( 1.026711182433314800, 12.55857864376268700, 1.546641874354783300E-015 ) ) ;
#119 = CARTESIAN_POINT ( 'NONE',  ( 1.026711182433317300, 8.682827580091445100E-016, 0.0000000000000000000 ) ) ;
#120 = PERSON_AND_ORGANIZATION_ROLE ( 'design_supplier' ) ;
#121 = DIRECTION ( 'NONE',  ( 1.878145495644181100E-016, -1.000000000000000000, 0.0000000000000000000 ) ) ;
#122 = DIRECTION ( 'NONE',  ( -1.000000000000000000, -1.836970198721029700E-016, -0.0000000000000000000 ) ) ;
#123 = CARTESIAN_POINT ( 'NONE',  ( 0.8852898261960040500, 8.423040763220788700E-016, 0.0000000000000000000 ) ) ;
#124 = AXIS2_PLACEMENT_3D ( 'NONE', #123, #122, #121 ) ;
#125 = PERSON_AND_ORGANIZATION ( #257, #256 ) ;
#126 = AXIS2_PLACEMENT_3D ( 'NONE', #137, #150, #170 ) ;
#127 = CONICAL_SURFACE ( 'NONE', #128, 12.69999999999999900, 0.7853981633974513900 ) ;
#128 = AXIS2_PLACEMENT_3D ( 'NONE', #182, #133, #179 ) ;
#129 = DIRECTION ( 'NONE',  ( 0.0000000000000000000, -1.000000000000000000, -1.224646799147353200E-016 ) ) ;
#130 = DIRECTION ( 'NONE',  ( 2.249639673992786400E-032, -1.224646799147353200E-016, 1.000000000000000000 ) ) ;
#131 = AXIS2_PLACEMENT_3D ( 'NONE', #160, #130, #129 ) ;
#132 = FACE_OUTER_BOUND ( 'NONE', #54, .T. ) ;
#133 = DIRECTION ( 'NONE',  ( 1.000000000000000000, 1.836970198721029700E-016, 0.0000000000000000000 ) ) ;
#134 = PERSON_AND_ORGANIZATION_ROLE ( 'creator' ) ;
#135 = DIRECTION ( 'NONE',  ( -1.000000000000000000, -1.836970198721029700E-016, -0.0000000000000000000 ) ) ;
#136 = AXIS2_PLACEMENT_3D ( 'NONE', #174, #135, #169 ) ;
#137 = CARTESIAN_POINT ( 'NONE',  ( 27.29998022710108800, 5.692061405548898300E-015, 0.0000000000000000000 ) ) ;
#138 = CARTESIAN_POINT ( 'NONE',  ( -3.700000000000000200, 0.0000000000000000000, 0.0000000000000000000 ) ) ;
#139 = CIRCLE ( 'NONE', #154, 12.55857864376268500 ) ;
#140 = CIRCLE ( 'NONE', #116, 12.69999999999999900 ) ;
#141 = AXIS2_PLACEMENT_3D ( 'NONE', #145, #143, #92 ) ;
#142 = FACE_OUTER_BOUND ( 'NONE', #34, .T. ) ;
#143 = DIRECTION ( 'NONE',  ( -1.000000000000000000, -1.836970198721029700E-016, -0.0000000000000000000 ) ) ;
#144 = DIRECTION ( 'NONE',  ( 1.899295172748518000E-016, -1.000000000000000000, 0.0000000000000000000 ) ) ;
#145 = CARTESIAN_POINT ( 'NONE',  ( 1.026711182433317300, 8.682827580091445100E-016, 0.0000000000000000000 ) ) ;
#146 = AXIS2_PLACEMENT_3D ( 'NONE', #164, #163, #181 ) ;
#147 = LINE ( 'NONE', #167, #166 ) ;
#148 = DIRECTION ( 'NONE',  ( -1.000000000000000000, -1.836970198721029700E-016, -0.0000000000000000000 ) ) ;
#149 = VECTOR ( 'NONE', #148, 1000.000000000000000 ) ;
#150 = DIRECTION ( 'NONE',  ( -1.000000000000000000, -1.836970198721029700E-016, -0.0000000000000000000 ) ) ;
#151 = CIRCLE ( 'NONE', #157, 12.55857864376269000 ) ;
#152 = CARTESIAN_POINT ( 'NONE',  ( -3.700000000000002400, 12.69999999999999900, 1.555301434917138400E-015 ) ) ;
#153 = LINE ( 'NONE', #152, #149 ) ;
#154 = AXIS2_PLACEMENT_3D ( 'NONE', #119, #159, #144 ) ;
#155 = DIRECTION ( 'NONE',  ( -0.7071067811865431300, -0.7071067811865520100, 0.0000000000000000000 ) ) ;
#156 = VECTOR ( 'NONE', #155, 999.9999999999998900 ) ;
#157 = AXIS2_PLACEMENT_3D ( 'NONE', #172, #171, #107 ) ;
#158 = CYLINDRICAL_SURFACE ( 'NONE', #102, 12.69999999999999900 ) ;
#159 = DIRECTION ( 'NONE',  ( -1.000000000000000000, -1.836970198721029700E-016, -0.0000000000000000000 ) ) ;
#160 = CARTESIAN_POINT ( 'NONE',  ( -27.29998022710108800, -0.03501313098568277500, -4.287871878973811100E-018 ) ) ;
#161 = TOROIDAL_SURFACE ( 'NONE', #146, -0.03501313098567843800, 31.00000000000000000 ) ;
#162 = CONICAL_SURFACE ( 'NONE', #141, 12.55857864376268500, 0.7853981633974545000 ) ;
#163 = DIRECTION ( 'NONE',  ( -1.000000000000000000, -1.836970198721029700E-016, -0.0000000000000000000 ) ) ;
#164 = CARTESIAN_POINT ( 'NONE',  ( -27.29998022710108800, -4.336808689942017700E-015, 0.0000000000000000000 ) ) ;
#165 = DIRECTION ( 'NONE',  ( -0.7071067811865432400, 0.7071067811865517900, 8.659560562354987100E-017 ) ) ;
#166 = VECTOR ( 'NONE', #165, 1000.000000000000000 ) ;
#167 = CARTESIAN_POINT ( 'NONE',  ( 1.026711182433314800, 12.55857864376268700, 1.537982313792427900E-015 ) ) ;
#168 = DIRECTION ( 'NONE',  ( -1.000000000000000000, -1.836970198721029700E-016, -0.0000000000000000000 ) ) ;
#169 = DIRECTION ( 'NONE',  ( 1.899295172748517300E-016, -1.000000000000000000, 0.0000000000000000000 ) ) ;
#170 = DIRECTION ( 'NONE',  ( 1.836970198721029700E-016, -1.000000000000000000, 0.0000000000000000000 ) ) ;
#171 = DIRECTION ( 'NONE',  ( -1.000000000000000000, -1.836970198721029700E-016, -0.0000000000000000000 ) ) ;
#172 = CARTESIAN_POINT ( 'NONE',  ( -1.026711182433308200, 4.910751890444193200E-016, 0.0000000000000000000 ) ) ;
#173 = CIRCLE ( 'NONE', #103, 31.00000000000000000 ) ;
#174 = CARTESIAN_POINT ( 'NONE',  ( -1.026711182433308200, 4.910751890444193200E-016, 0.0000000000000000000 ) ) ;
#175 = FACE_OUTER_BOUND ( 'NONE', #3, .T. ) ;
#176 = CIRCLE ( 'NONE', #124, 12.69999999999999900 ) ;
#177 = SECURITY_CLASSIFICATION_LEVEL ( 'unclassified' ) ;
#178 = CC_DESIGN_PERSON_AND_ORGANIZATION_ASSIGNMENT ( #125, #120, ( #80 ) ) ;
#179 = DIRECTION ( 'NONE',  ( -1.878145495644181100E-016, 1.000000000000000000, 0.0000000000000000000 ) ) ;
#180 = CC_DESIGN_PERSON_AND_ORGANIZATION_ASSIGNMENT ( #183, #134, ( #80 ) ) ;
#181 = DIRECTION ( 'NONE',  ( 1.836970198721029700E-016, -1.000000000000000000, 0.0000000000000000000 ) ) ;
#182 = CARTESIAN_POINT ( 'NONE',  ( -0.8852898261959992700, 5.170538707314839800E-016, 0.0000000000000000000 ) ) ;
#183 = PERSON_AND_ORGANIZATION ( #257, #256 ) ;
#184 = CC_DESIGN_DATE_AND_TIME_ASSIGNMENT ( #196, #193, ( #113 ) ) ;
#185 = COORDINATED_UNIVERSAL_TIME_OFFSET ( 5, 0, .BEHIND. ) ;
#186 = CALENDAR_DATE ( 2012, 28, 9 ) ;
#187 = APPROVAL ( #197, 'UNSPECIFIED' ) ;
#188 = LOCAL_TIME ( 12, 27, 19.00000000000000000, #195 ) ;
#189 = APPROVAL_PERSON_ORGANIZATION ( #194, #187, #190 ) ;
#190 = APPROVAL_ROLE ( '' ) ;
#191 = CARTESIAN_POINT ( 'NONE',  ( 1.026711182433319500, -12.55857864376268300, 0.0000000000000000000 ) ) ;
#192 = CARTESIAN_POINT ( 'NONE',  ( 3.700000000000000200, 1.359357947053562200E-015, 0.0000000000000000000 ) ) ;
#193 = DATE_TIME_ROLE ( 'classification_date' ) ;
#194 = PERSON_AND_ORGANIZATION ( #257, #256 ) ;
#195 = COORDINATED_UNIVERSAL_TIME_OFFSET ( 5, 0, .BEHIND. ) ;
#196 = DATE_AND_TIME ( #186, #188 ) ;
#197 = APPROVAL_STATUS ( 'not_yet_approved' ) ;
#198 = AXIS2_PLACEMENT_3D ( 'NONE', #235, #217, #216 ) ;
#199 = CONICAL_SURFACE ( 'NONE', #207, 12.69999999999999900, 0.7853981633974513900 ) ;
#200 = DIRECTION ( 'NONE',  ( 0.7071067811865454600, -0.7071067811865495700, 8.659560562354960000E-017 ) ) ;
#201 = VECTOR ( 'NONE', #200, 1000.000000000000000 ) ;
#202 = LINE ( 'NONE', #221, #201 ) ;
#203 = AXIS2_PLACEMENT_3D ( 'NONE', #250, #249, #248 ) ;
#204 = FACE_OUTER_BOUND ( 'NONE', #79, .T. ) ;
#205 = DIRECTION ( 'NONE',  ( 0.0000000000000000000, -1.000000000000000000, -1.224646799147353200E-016 ) ) ;
#206 = DIRECTION ( 'NONE',  ( 2.249639673992786400E-032, -1.224646799147353200E-016, 1.000000000000000000 ) ) ;
#207 = AXIS2_PLACEMENT_3D ( 'NONE', #211, #210, #209 ) ;
#208 = CARTESIAN_POINT ( 'NONE',  ( -0.8852898261959968300, -12.69999999999999900, 1.555301434917138400E-015 ) ) ;
#209 = DIRECTION ( 'NONE',  ( -1.878145495644181100E-016, 1.000000000000000000, 0.0000000000000000000 ) ) ;
#210 = DIRECTION ( 'NONE',  ( 1.000000000000000000, 1.836970198721029700E-016, 0.0000000000000000000 ) ) ;
#211 = CARTESIAN_POINT ( 'NONE',  ( -0.8852898261959992700, 5.170538707314839800E-016, 0.0000000000000000000 ) ) ;
#212 = CYLINDRICAL_SURFACE ( 'NONE', #203, 12.69999999999999900 ) ;
#213 = FACE_OUTER_BOUND ( 'NONE', #310, .T. ) ;
#214 = AXIS2_PLACEMENT_3D ( 'NONE', #264, #233, #232 ) ;
#215 = TOROIDAL_SURFACE ( 'NONE', #214, -0.03501313098569453600, 31.00000000000000000 ) ;
#216 = DIRECTION ( 'NONE',  ( 1.899295172748518000E-016, -1.000000000000000000, 0.0000000000000000000 ) ) ;
#217 = DIRECTION ( 'NONE',  ( -1.000000000000000000, -1.836970198721029700E-016, -0.0000000000000000000 ) ) ;
#218 = TOROIDAL_SURFACE ( 'NONE', #231, -0.03501313098567843800, 31.00000000000000000 ) ;
#219 = CIRCLE ( 'NONE', #220, 31.00000000000000000 ) ;
#220 = AXIS2_PLACEMENT_3D ( 'NONE', #229, #206, #205 ) ;
#221 = CARTESIAN_POINT ( 'NONE',  ( -0.8852898261959968300, -12.69999999999999900, 1.555301434917138400E-015 ) ) ;
#222 = CARTESIAN_POINT ( 'NONE',  ( 0.8852898261960063800, -12.69999999999999900, 0.0000000000000000000 ) ) ;
#223 = CARTESIAN_POINT ( 'NONE',  ( -1.026711182433306800, -12.55857864376269000, 0.0000000000000000000 ) ) ;
#224 = DIRECTION ( 'NONE',  ( 0.7071067811865452400, 0.7071067811865497900, 0.0000000000000000000 ) ) ;
#225 = VECTOR ( 'NONE', #224, 1000.000000000000000 ) ;
#226 = LINE ( 'NONE', #238, #225 ) ;
#227 = FACE_OUTER_BOUND ( 'NONE', #69, .T. ) ;
#228 = CARTESIAN_POINT ( 'NONE',  ( -3.700000000000000200, 0.0000000000000000000, 0.0000000000000000000 ) ) ;
#229 = CARTESIAN_POINT ( 'NONE',  ( 27.29998022710108800, -0.03501313098568884600, -4.287871878975782500E-018 ) ) ;
#230 = CARTESIAN_POINT ( 'NONE',  ( -3.699999999999998000, -12.69999999999999900, 0.0000000000000000000 ) ) ;
#231 = AXIS2_PLACEMENT_3D ( 'NONE', #274, #234, #262 ) ;
#232 = DIRECTION ( 'NONE',  ( 1.836970198721029700E-016, -1.000000000000000000, 0.0000000000000000000 ) ) ;
#233 = DIRECTION ( 'NONE',  ( -1.000000000000000000, -1.836970198721029700E-016, -0.0000000000000000000 ) ) ;
#234 = DIRECTION ( 'NONE',  ( -1.000000000000000000, -1.836970198721029700E-016, -0.0000000000000000000 ) ) ;
#235 = CARTESIAN_POINT ( 'NONE',  ( 1.026711182433317300, 8.682827580091445100E-016, 0.0000000000000000000 ) ) ;
#236 = DIRECTION ( 'NONE',  ( -1.000000000000000000, -1.836970198721029700E-016, -0.0000000000000000000 ) ) ;
#237 = DIRECTION ( 'NONE',  ( -1.000000000000000000, -1.836970198721029700E-016, -0.0000000000000000000 ) ) ;
#238 = CARTESIAN_POINT ( 'NONE',  ( -0.8852898261960016100, 12.69999999999999900, 0.0000000000000000000 ) ) ;
#239 = UNCERTAINTY_MEASURE_WITH_UNIT (LENGTH_MEASURE( 1.000000000000000100E-005 ), #242, 'distance_accuracy_value', 'NONE');
#240 =( NAMED_UNIT ( * ) SI_UNIT ( $, .STERADIAN. ) SOLID_ANGLE_UNIT ( ) );
#241 =( NAMED_UNIT ( * ) PLANE_ANGLE_UNIT ( ) SI_UNIT ( $, .RADIAN. ) );
#242 =( LENGTH_UNIT ( ) NAMED_UNIT ( * ) SI_UNIT ( .MILLI., .METRE. ) );
#243 = CARTESIAN_POINT ( 'NONE',  ( 0.0000000000000000000, 0.0000000000000000000, 0.0000000000000000000 ) ) ;
#244 = DIRECTION ( 'NONE',  ( 1.878145495644181100E-016, -1.000000000000000000, 0.0000000000000000000 ) ) ;
#245 = DIRECTION ( 'NONE',  ( -1.000000000000000000, -1.836970198721029700E-016, -0.0000000000000000000 ) ) ;
#246 = CARTESIAN_POINT ( 'NONE',  ( -0.8852898261959992700, 5.170538707314839800E-016, 0.0000000000000000000 ) ) ;
#247 = AXIS2_PLACEMENT_3D ( 'NONE', #246, #245, #244 ) ;
#248 = DIRECTION ( 'NONE',  ( 1.707404996040164500E-016, -1.000000000000000000, 0.0000000000000000000 ) ) ;
#249 = DIRECTION ( 'NONE',  ( -1.000000000000000000, -1.836970198721029700E-016, -0.0000000000000000000 ) ) ;
#250 = CARTESIAN_POINT ( 'NONE',  ( -3.700000000000000200, 0.0000000000000000000, 0.0000000000000000000 ) ) ;
#251 = CIRCLE ( 'NONE', #247, 12.69999999999999900 ) ;
#252 = CIRCLE ( 'NONE', #198, 12.55857864376268500 ) ;
#253 = CC_DESIGN_PERSON_AND_ORGANIZATION_ASSIGNMENT ( #255, #254, ( #258 ) ) ;
#254 = PERSON_AND_ORGANIZATION_ROLE ( 'design_owner' ) ;
#255 = PERSON_AND_ORGANIZATION ( #257, #256 ) ;
#256 = ORGANIZATION ( 'UNSPECIFIED', 'UNSPECIFIED', '' ) ;
#257 = PERSON ( 'UNSPECIFIED', 'UNSPECIFIED', 'UNSPECIFIED', ('UNSPECIFIED'), ('UNSPECIFIED'), ('UNSPECIFIED') ) ;
#258 = PRODUCT ( '25016-E0W', '25016-E0W', '', ( #259 ) ) ;
#259 = MECHANICAL_CONTEXT ( 'NONE', #269, 'mechanical' ) ;
#260 = APPLICATION_PROTOCOL_DEFINITION ( 'international standard', 'config_control_design', 1994, #269 ) ;
#261 = DIRECTION ( 'NONE',  ( 1.899295172748518000E-016, -1.000000000000000000, 0.0000000000000000000 ) ) ;
#262 = DIRECTION ( 'NONE',  ( 1.836970198721029700E-016, -1.000000000000000000, 0.0000000000000000000 ) ) ;
#263 = AXIS2_PLACEMENT_3D ( 'NONE', #301, #236, #261 ) ;
#264 = CARTESIAN_POINT ( 'NONE',  ( 27.29998022710108800, 5.692061405548898300E-015, 0.0000000000000000000 ) ) ;
#265 = FACE_OUTER_BOUND ( 'NONE', #32, .T. ) ;
#266 = CONICAL_SURFACE ( 'NONE', #263, 12.55857864376268500, 0.7853981633974545000 ) ;
#267 = DIRECTION ( 'NONE',  ( 1.000000000000000000, 0.0000000000000000000, 0.0000000000000000000 ) ) ;
#268 = DIRECTION ( 'NONE',  ( 0.0000000000000000000, 0.0000000000000000000, 1.000000000000000000 ) ) ;
#269 = APPLICATION_CONTEXT ( 'configuration controlled 3d designs of mechanical parts and assemblies' ) ;
#270 = AXIS2_PLACEMENT_3D ( 'NONE', #243, #268, #267 ) ;
#271 = ADVANCED_BREP_SHAPE_REPRESENTATION ( '25016-E0W', ( #59, #270 ), #272 ) ;
#272 =( GEOMETRIC_REPRESENTATION_CONTEXT ( 3 ) GLOBAL_UNCERTAINTY_ASSIGNED_CONTEXT ( ( #239 ) ) GLOBAL_UNIT_ASSIGNED_CONTEXT ( ( #242, #241, #240 ) ) REPRESENTATION_CONTEXT ( 'NONE', 'WORKASPACE' ) );
#273 = FACE_OUTER_BOUND ( 'NONE', #60, .T. ) ;
#274 = CARTESIAN_POINT ( 'NONE',  ( -27.29998022710108800, -4.336808689942017700E-015, 0.0000000000000000000 ) ) ;
#275 = CARTESIAN_POINT ( 'NONE',  ( -1.026711182433312400, 12.55857864376269000, 1.537982313792428700E-015 ) ) ;
#276 = VECTOR ( 'NONE', #237, 1000.000000000000000 ) ;
#277 = LINE ( 'NONE', #230, #276 ) ;
#278 = DATE_TIME_ROLE ( 'creation_date' ) ;
#279 = DATE_AND_TIME ( #280, #281 ) ;
#280 = CALENDAR_DATE ( 2012, 28, 9 ) ;
#281 = LOCAL_TIME ( 12, 27, 19.00000000000000000, #282 ) ;
#282 = COORDINATED_UNIVERSAL_TIME_OFFSET ( 5, 0, .BEHIND. ) ;
#283 = CC_DESIGN_PERSON_AND_ORGANIZATION_ASSIGNMENT ( #285, #284, ( #297 ) ) ;
#284 = PERSON_AND_ORGANIZATION_ROLE ( 'creator' ) ;
#285 = PERSON_AND_ORGANIZATION ( #257, #256 ) ;
#286 = CC_DESIGN_APPROVAL ( #294, ( #297 ) ) ;
#287 = APPROVAL_DATE_TIME ( #288, #294 ) ;
#288 = DATE_AND_TIME ( #289, #290 ) ;
#289 = CALENDAR_DATE ( 2012, 28, 9 ) ;
#290 = LOCAL_TIME ( 12, 27, 19.00000000000000000, #291 ) ;
#291 = COORDINATED_UNIVERSAL_TIME_OFFSET ( 5, 0, .BEHIND. ) ;
#292 = APPROVAL_PERSON_ORGANIZATION ( #296, #294, #293 ) ;
#293 = APPROVAL_ROLE ( '' ) ;
#294 = APPROVAL ( #295, 'UNSPECIFIED' ) ;
#295 = APPROVAL_STATUS ( 'not_yet_approved' ) ;
#296 = PERSON_AND_ORGANIZATION ( #257, #256 ) ;
#297 = PRODUCT_DEFINITION ( 'UNKNOWN', '', #80, #298 ) ;
#298 = DESIGN_CONTEXT ( 'detailed design', #300, 'design' ) ;
#299 = APPLICATION_PROTOCOL_DEFINITION ( 'international standard', 'config_control_design', 1994, #300 ) ;
#300 = APPLICATION_CONTEXT ( 'configuration controlled 3d designs of mechanical parts and assemblies' ) ;
#301 = CARTESIAN_POINT ( 'NONE',  ( 1.026711182433317300, 8.682827580091445100E-016, 0.0000000000000000000 ) ) ;
#302 = PRODUCT_RELATED_PRODUCT_CATEGORY ( 'detail', '', ( #258 ) ) ;
#303 = PRODUCT_DEFINITION_SHAPE ( 'NONE', 'NONE',  #297 ) ;
#304 = SHAPE_DEFINITION_REPRESENTATION ( #303, #271 ) ;
#305 = CC_DESIGN_SECURITY_CLASSIFICATION ( #113, ( #80 ) ) ;
#306 = ORIENTED_EDGE ( 'NONE', *, *, #24, .F. ) ;
#307 = VERTEX_POINT ( 'NONE', #222 ) ;
#308 = ADVANCED_FACE ( 'NONE', ( #213 ), #212, .T. ) ;
#309 = ORIENTED_EDGE ( 'NONE', *, *, #22, .T. ) ;
#310 = EDGE_LOOP ( 'NONE', ( #309, #28, #316, #7 ) ) ;
#311 = ORIENTED_EDGE ( 'NONE', *, *, #22, .F. ) ;
#312 = VERTEX_POINT ( 'NONE', #208 ) ;
#313 = LOCAL_TIME ( 12, 27, 19.00000000000000000, #185 ) ;
#314 = EDGE_CURVE ( 'NONE', #312, #29, #251, .T. ) ;
#315 = CALENDAR_DATE ( 2012, 28, 9 ) ;
#316 = ORIENTED_EDGE ( 'NONE', *, *, #314, .F. ) ;
#317 = CC_DESIGN_DATE_AND_TIME_ASSIGNMENT ( #279, #278, ( #297 ) ) ;
#318 = VERTEX_POINT ( 'NONE', #275 ) ;
#319 = VERTEX_POINT ( 'NONE', #223 ) ;
#320 = APPROVAL_DATE_TIME ( #322, #187 ) ;
#321 = CC_DESIGN_APPROVAL ( #187, ( #113 ) ) ;
#322 = DATE_AND_TIME ( #315, #313 ) ;
#323 = DIRECTION ( 'NONE',  ( -1.000000000000000000, 0.0000000000000000000, 0.0000000000000000000 ) ) ;
#324 = CARTESIAN_POINT ( 'NONE',  ( -27.29998022710108800, 0.03501313098567410100, 0.0000000000000000000 ) ) ;
#325 = AXIS2_PLACEMENT_3D ( 'NONE', #324, #326, #323 ) ;
#326 = DIRECTION ( 'NONE',  ( 0.0000000000000000000, 0.0000000000000000000, -1.000000000000000000 ) ) ;
#327 = CIRCLE ( 'NONE', #325, 31.00000000000000000 ) ;
ENDSEC;
END-ISO-10303-21;
