ISO-10303-21;
HEADER;
FILE_DESCRIPTION (( 'STEP AP203' ),
    '1' );
FILE_NAME ('Web Model 64093.STEP',
    '2017-01-31T19:04:56',
    ( '' ),
    ( '' ),
    'SwSTEP 2.0',
    'SolidWorks 2016',
    '' );
FILE_SCHEMA (( 'CONFIG_CONTROL_DESIGN' ));
ENDSEC;

DATA;
#1 = ADVANCED_FACE ( 'NONE', ( #103 ), #133, .T. ) ;
#2 = AXIS2_PLACEMENT_3D ( 'NONE', #116, #142, #5 ) ;
#3 = APPROVAL_ROLE ( '' ) ;
#4 = VERTEX_POINT ( 'NONE', #56 ) ;
#5 = DIRECTION ( 'NONE',  ( 1.000000000000000000, 0.0000000000000000000, 0.0000000000000000000 ) ) ;
#6 = AXIS2_PLACEMENT_3D ( 'NONE', #59, #126, #128 ) ;
#7 = APPROVAL_ROLE ( '' ) ;
#8 = VERTEX_POINT ( 'NONE', #84 ) ;
#9 = PRODUCT ( 'Web Model 64093', 'Web Model 64093', '', ( #96 ) ) ;
#10 = COORDINATED_UNIVERSAL_TIME_OFFSET ( 5, 0, .BEHIND. ) ;
#11 = SECURITY_CLASSIFICATION_LEVEL ( 'unclassified' ) ;
#12 = CARTESIAN_POINT ( 'NONE',  ( 2.000000000000000000, 0.0000000000000000000, 6.249999999999998200 ) ) ;
#13 = CC_DESIGN_APPROVAL ( #49, ( #107 ) ) ;
#14 = DIRECTION ( 'NONE',  ( 1.000000000000000000, 0.0000000000000000000, 0.0000000000000000000 ) ) ;
#15 = AXIS2_PLACEMENT_3D ( 'NONE', #108, #153, #124 ) ;
#16 = DIRECTION ( 'NONE',  ( 1.000000000000000000, 0.0000000000000000000, 0.0000000000000000000 ) ) ;
#17 = PERSON_AND_ORGANIZATION_ROLE ( 'design_owner' ) ;
#18 = PERSON ( 'UNSPECIFIED', 'UNSPECIFIED', 'UNSPECIFIED', ('UNSPECIFIED'), ('UNSPECIFIED'), ('UNSPECIFIED') ) ;
#19 = APPROVAL ( #76, 'UNSPECIFIED' ) ;
#20 = VECTOR ( 'NONE', #174, 1000.000000000000000 ) ;
#21 = COORDINATED_UNIVERSAL_TIME_OFFSET ( 5, 0, .BEHIND. ) ;
#22 = LINE ( 'NONE', #44, #20 ) ;
#23 = VERTEX_POINT ( 'NONE', #117 ) ;
#24 = CC_DESIGN_DATE_AND_TIME_ASSIGNMENT ( #88, #114, ( #134 ) ) ;
#25 = APPLICATION_PROTOCOL_DEFINITION ( 'international standard', 'config_control_design', 1994, #35 ) ;
#26 = DIRECTION ( 'NONE',  ( 0.0000000000000000000, 0.0000000000000000000, -1.000000000000000000 ) ) ;
#27 = CARTESIAN_POINT ( 'NONE',  ( 0.0000000000000000000, 0.0000000000000000000, 0.0000000000000000000 ) ) ;
#28 = APPLICATION_CONTEXT ( 'configuration controlled 3d designs of mechanical parts and assemblies' ) ;
#29 = CALENDAR_DATE ( 2017, 31, 1 ) ;
#30 = APPROVAL_PERSON_ORGANIZATION ( #131, #49, #81 ) ;
#31 = CC_DESIGN_APPROVAL ( #19, ( #134 ) ) ;
#32 = CARTESIAN_POINT ( 'NONE',  ( 2.000000000000000000, 7.654042494670955600E-016, -6.249999999999998200 ) ) ;
#33 = AXIS2_PLACEMENT_3D ( 'NONE', #27, #14, #26 ) ;
#34 = CARTESIAN_POINT ( 'NONE',  ( 2.000000000000000000, 0.0000000000000000000, 0.0000000000000000000 ) ) ;
#35 = APPLICATION_CONTEXT ( 'configuration controlled 3d designs of mechanical parts and assemblies' ) ;
#36 = LINE ( 'NONE', #12, #169 ) ;
#37 = APPROVAL_DATE_TIME ( #53, #49 ) ;
#38 = PERSON_AND_ORGANIZATION ( #18, #157 ) ;
#39 = APPLICATION_PROTOCOL_DEFINITION ( 'international standard', 'config_control_design', 1994, #28 ) ;
#40 = CC_DESIGN_PERSON_AND_ORGANIZATION_ASSIGNMENT ( #47, #130, ( #107 ) ) ;
#41 = DATE_TIME_ROLE ( 'classification_date' ) ;
#42 = CC_DESIGN_PERSON_AND_ORGANIZATION_ASSIGNMENT ( #155, #163, ( #120 ) ) ;
#43 = DIRECTION ( 'NONE',  ( 0.0000000000000000000, 0.0000000000000000000, -1.000000000000000000 ) ) ;
#44 = CARTESIAN_POINT ( 'NONE',  ( 2.000000000000000000, 7.654042494670955600E-016, -6.249999999999998200 ) ) ;
#45 = AXIS2_PLACEMENT_3D ( 'NONE', #136, #160, #100 ) ;
#46 = PRODUCT_RELATED_PRODUCT_CATEGORY ( 'detail', '', ( #9 ) ) ;
#47 = PERSON_AND_ORGANIZATION ( #18, #157 ) ;
#48 = FACE_OUTER_BOUND ( 'NONE', #93, .T. ) ;
#49 = APPROVAL ( #156, 'UNSPECIFIED' ) ;
#50 = LOCAL_TIME ( 14, 4, 56.00000000000000000, #98 ) ;
#51 = EDGE_LOOP ( 'NONE', ( #83, #121 ) ) ;
#52 = PLANE ( 'NONE',  #165 ) ;
#53 = DATE_AND_TIME ( #60, #167 ) ;
#54 = CC_DESIGN_PERSON_AND_ORGANIZATION_ASSIGNMENT ( #111, #109, ( #134 ) ) ;
#55 = ORIENTED_EDGE ( 'NONE', *, *, #110, .F. ) ;
#56 = CARTESIAN_POINT ( 'NONE',  ( 2.000000000000000000, 0.0000000000000000000, 6.249999999999998200 ) ) ;
#57 = APPROVAL_PERSON_ORGANIZATION ( #38, #69, #3 ) ;
#58 = CC_DESIGN_PERSON_AND_ORGANIZATION_ASSIGNMENT ( #79, #17, ( #9 ) ) ;
#59 = CARTESIAN_POINT ( 'NONE',  ( 0.0000000000000000000, 0.0000000000000000000, 0.0000000000000000000 ) ) ;
#60 = CALENDAR_DATE ( 2017, 31, 1 ) ;
#61 = CIRCLE ( 'NONE', #6, 6.249999999999998200 ) ;
#62 = PLANE ( 'NONE',  #33 ) ;
#63 = ORIENTED_EDGE ( 'NONE', *, *, #164, .F. ) ;
#64 = APPROVAL_DATE_TIME ( #74, #19 ) ;
#65 = ORIENTED_EDGE ( 'NONE', *, *, #129, .F. ) ;
#66 = CC_DESIGN_SECURITY_CLASSIFICATION ( #120, ( #107 ) ) ;
#67 = MANIFOLD_SOLID_BREP ( 'Extrude1', #158 ) ;
#68 = CYLINDRICAL_SURFACE ( 'NONE', #45, 6.249999999999998200 ) ;
#69 = APPROVAL ( #75, 'UNSPECIFIED' ) ;
#70 = COORDINATED_UNIVERSAL_TIME_OFFSET ( 5, 0, .BEHIND. ) ;
#71 = DIRECTION ( 'NONE',  ( 1.000000000000000000, 0.0000000000000000000, 0.0000000000000000000 ) ) ;
#72 = APPROVAL_DATE_TIME ( #113, #69 ) ;
#73 = DESIGN_CONTEXT ( 'detailed design', #35, 'design' ) ;
#74 = DATE_AND_TIME ( #147, #175 ) ;
#75 = APPROVAL_STATUS ( 'not_yet_approved' ) ;
#76 = APPROVAL_STATUS ( 'not_yet_approved' ) ;
#77 = PRODUCT_DEFINITION_SHAPE ( 'NONE', 'NONE',  #134 ) ;
#78 = FACE_OUTER_BOUND ( 'NONE', #51, .T. ) ;
#79 = PERSON_AND_ORGANIZATION ( #18, #157 ) ;
#80 = LOCAL_TIME ( 14, 4, 56.00000000000000000, #144 ) ;
#81 = APPROVAL_ROLE ( '' ) ;
#82 = DATE_AND_TIME ( #29, #122 ) ;
#83 = ORIENTED_EDGE ( 'NONE', *, *, #110, .T. ) ;
#84 = CARTESIAN_POINT ( 'NONE',  ( 0.0000000000000000000, 7.654042494670955600E-016, -6.249999999999998200 ) ) ;
#85 = DIRECTION ( 'NONE',  ( -1.000000000000000000, -0.0000000000000000000, -0.0000000000000000000 ) ) ;
#86 = EDGE_CURVE ( 'NONE', #91, #8, #22, .T. ) ;
#87 = CARTESIAN_POINT ( 'NONE',  ( 2.000000000000000000, 0.0000000000000000000, 0.0000000000000000000 ) ) ;
#88 = DATE_AND_TIME ( #139, #50 ) ;
#89 = FACE_OUTER_BOUND ( 'NONE', #143, .T. ) ;
#90 = ADVANCED_BREP_SHAPE_REPRESENTATION ( 'Web Model 64093', ( #67, #2 ), #138 ) ;
#91 = VERTEX_POINT ( 'NONE', #32 ) ;
#92 = PERSON_AND_ORGANIZATION_ROLE ( 'design_supplier' ) ;
#93 = EDGE_LOOP ( 'NONE', ( #105, #55, #154, #132 ) ) ;
#94 = ADVANCED_FACE ( 'NONE', ( #78 ), #52, .T. ) ;
#95 = SHAPE_DEFINITION_REPRESENTATION ( #77, #90 ) ;
#96 = MECHANICAL_CONTEXT ( 'NONE', #28, 'mechanical' ) ;
#97 = ADVANCED_FACE ( 'NONE', ( #48 ), #68, .T. ) ;
#98 = COORDINATED_UNIVERSAL_TIME_OFFSET ( 5, 0, .BEHIND. ) ;
#99 = ORIENTED_EDGE ( 'NONE', *, *, #104, .F. ) ;
#100 = DIRECTION ( 'NONE',  ( 0.0000000000000000000, 0.0000000000000000000, 1.000000000000000000 ) ) ;
#101 = APPROVAL_PERSON_ORGANIZATION ( #135, #19, #7 ) ;
#102 = CIRCLE ( 'NONE', #172, 6.249999999999998200 ) ;
#103 = FACE_OUTER_BOUND ( 'NONE', #127, .T. ) ;
#104 = EDGE_CURVE ( 'NONE', #4, #23, #36, .T. ) ;
#105 = ORIENTED_EDGE ( 'NONE', *, *, #86, .F. ) ;
#106 =( LENGTH_UNIT ( ) NAMED_UNIT ( * ) SI_UNIT ( .MILLI., .METRE. ) );
#107 = PRODUCT_DEFINITION_FORMATION_WITH_SPECIFIED_SOURCE ( 'ANY', '', #9, .NOT_KNOWN. ) ;
#108 = CARTESIAN_POINT ( 'NONE',  ( 0.0000000000000000000, 0.0000000000000000000, 0.0000000000000000000 ) ) ;
#109 = PERSON_AND_ORGANIZATION_ROLE ( 'creator' ) ;
#110 = EDGE_CURVE ( 'NONE', #4, #91, #140, .T. ) ;
#111 = PERSON_AND_ORGANIZATION ( #18, #157 ) ;
#112 =( NAMED_UNIT ( * ) PLANE_ANGLE_UNIT ( ) SI_UNIT ( $, .RADIAN. ) );
#113 = DATE_AND_TIME ( #151, #80 ) ;
#114 = DATE_TIME_ROLE ( 'creation_date' ) ;
#115 = ORIENTED_EDGE ( 'NONE', *, *, #164, .T. ) ;
#116 = CARTESIAN_POINT ( 'NONE',  ( 0.0000000000000000000, 0.0000000000000000000, 0.0000000000000000000 ) ) ;
#117 = CARTESIAN_POINT ( 'NONE',  ( 0.0000000000000000000, 0.0000000000000000000, 6.249999999999998200 ) ) ;
#118 = AXIS2_PLACEMENT_3D ( 'NONE', #87, #119, #159 ) ;
#119 = DIRECTION ( 'NONE',  ( -1.000000000000000000, -0.0000000000000000000, -0.0000000000000000000 ) ) ;
#120 = SECURITY_CLASSIFICATION ( '', '', #11 ) ;
#121 = ORIENTED_EDGE ( 'NONE', *, *, #149, .T. ) ;
#122 = LOCAL_TIME ( 14, 4, 56.00000000000000000, #70 ) ;
#123 = ADVANCED_FACE ( 'NONE', ( #89 ), #62, .F. ) ;
#124 = DIRECTION ( 'NONE',  ( 0.0000000000000000000, 0.0000000000000000000, -1.000000000000000000 ) ) ;
#125 = UNCERTAINTY_MEASURE_WITH_UNIT (LENGTH_MEASURE( 1.000000000000000100E-005 ), #106, 'distance_accuracy_value', 'NONE');
#126 = DIRECTION ( 'NONE',  ( 1.000000000000000000, 0.0000000000000000000, 0.0000000000000000000 ) ) ;
#127 = EDGE_LOOP ( 'NONE', ( #146, #137, #115, #99 ) ) ;
#128 = DIRECTION ( 'NONE',  ( 0.0000000000000000000, 0.0000000000000000000, -1.000000000000000000 ) ) ;
#129 = EDGE_CURVE ( 'NONE', #23, #8, #162, .T. ) ;
#130 = PERSON_AND_ORGANIZATION_ROLE ( 'creator' ) ;
#131 = PERSON_AND_ORGANIZATION ( #18, #157 ) ;
#132 = ORIENTED_EDGE ( 'NONE', *, *, #129, .T. ) ;
#133 = CYLINDRICAL_SURFACE ( 'NONE', #118, 6.249999999999998200 ) ;
#134 = PRODUCT_DEFINITION ( 'UNKNOWN', '', #107, #73 ) ;
#135 = PERSON_AND_ORGANIZATION ( #18, #157 ) ;
#136 = CARTESIAN_POINT ( 'NONE',  ( 2.000000000000000000, 0.0000000000000000000, 0.0000000000000000000 ) ) ;
#137 = ORIENTED_EDGE ( 'NONE', *, *, #86, .T. ) ;
#138 =( GEOMETRIC_REPRESENTATION_CONTEXT ( 3 ) GLOBAL_UNCERTAINTY_ASSIGNED_CONTEXT ( ( #125 ) ) GLOBAL_UNIT_ASSIGNED_CONTEXT ( ( #106, #112, #166 ) ) REPRESENTATION_CONTEXT ( 'NONE', 'WORKASPACE' ) );
#139 = CALENDAR_DATE ( 2017, 31, 1 ) ;
#140 = CIRCLE ( 'NONE', #148, 6.249999999999998200 ) ;
#141 = CC_DESIGN_PERSON_AND_ORGANIZATION_ASSIGNMENT ( #161, #92, ( #107 ) ) ;
#142 = DIRECTION ( 'NONE',  ( 0.0000000000000000000, 0.0000000000000000000, 1.000000000000000000 ) ) ;
#143 = EDGE_LOOP ( 'NONE', ( #65, #63 ) ) ;
#144 = COORDINATED_UNIVERSAL_TIME_OFFSET ( 5, 0, .BEHIND. ) ;
#145 = CARTESIAN_POINT ( 'NONE',  ( 2.000000000000000000, 0.0000000000000000000, 0.0000000000000000000 ) ) ;
#146 = ORIENTED_EDGE ( 'NONE', *, *, #149, .F. ) ;
#147 = CALENDAR_DATE ( 2017, 31, 1 ) ;
#148 = AXIS2_PLACEMENT_3D ( 'NONE', #145, #16, #152 ) ;
#149 = EDGE_CURVE ( 'NONE', #91, #4, #102, .T. ) ;
#150 = CC_DESIGN_APPROVAL ( #69, ( #120 ) ) ;
#151 = CALENDAR_DATE ( 2017, 31, 1 ) ;
#152 = DIRECTION ( 'NONE',  ( 0.0000000000000000000, 0.0000000000000000000, -1.000000000000000000 ) ) ;
#153 = DIRECTION ( 'NONE',  ( 1.000000000000000000, 0.0000000000000000000, 0.0000000000000000000 ) ) ;
#154 = ORIENTED_EDGE ( 'NONE', *, *, #104, .T. ) ;
#155 = PERSON_AND_ORGANIZATION ( #18, #157 ) ;
#156 = APPROVAL_STATUS ( 'not_yet_approved' ) ;
#157 = ORGANIZATION ( 'UNSPECIFIED', 'UNSPECIFIED', '' ) ;
#158 = CLOSED_SHELL ( 'NONE', ( #1, #97, #94, #123 ) ) ;
#159 = DIRECTION ( 'NONE',  ( 0.0000000000000000000, 0.0000000000000000000, 1.000000000000000000 ) ) ;
#160 = DIRECTION ( 'NONE',  ( -1.000000000000000000, -0.0000000000000000000, -0.0000000000000000000 ) ) ;
#161 = PERSON_AND_ORGANIZATION ( #18, #157 ) ;
#162 = CIRCLE ( 'NONE', #15, 6.249999999999998200 ) ;
#163 = PERSON_AND_ORGANIZATION_ROLE ( 'classification_officer' ) ;
#164 = EDGE_CURVE ( 'NONE', #8, #23, #61, .T. ) ;
#165 = AXIS2_PLACEMENT_3D ( 'NONE', #173, #71, #43 ) ;
#166 =( NAMED_UNIT ( * ) SI_UNIT ( $, .STERADIAN. ) SOLID_ANGLE_UNIT ( ) );
#167 = LOCAL_TIME ( 14, 4, 56.00000000000000000, #21 ) ;
#168 = DIRECTION ( 'NONE',  ( 0.0000000000000000000, 0.0000000000000000000, -1.000000000000000000 ) ) ;
#169 = VECTOR ( 'NONE', #85, 1000.000000000000000 ) ;
#170 = CC_DESIGN_DATE_AND_TIME_ASSIGNMENT ( #82, #41, ( #120 ) ) ;
#171 = DIRECTION ( 'NONE',  ( 1.000000000000000000, 0.0000000000000000000, 0.0000000000000000000 ) ) ;
#172 = AXIS2_PLACEMENT_3D ( 'NONE', #34, #171, #168 ) ;
#173 = CARTESIAN_POINT ( 'NONE',  ( 2.000000000000000000, 0.0000000000000000000, 0.0000000000000000000 ) ) ;
#174 = DIRECTION ( 'NONE',  ( -1.000000000000000000, -0.0000000000000000000, -0.0000000000000000000 ) ) ;
#175 = LOCAL_TIME ( 14, 4, 56.00000000000000000, #10 ) ;
ENDSEC;
END-ISO-10303-21;
