ISO-10303-21;
HEADER;
FILE_DESCRIPTION (( 'STEP AP203' ),
    '1' );
FILE_NAME ('step_47011.step',
    '2014-06-12T17:55:13',
    ( '' ),
    ( '' ),
    'SwSTEP 2.0',
    'SolidWorks 2014',
    '' );
FILE_SCHEMA (( 'CONFIG_CONTROL_DESIGN' ));
ENDSEC;

DATA;
#1 = CC_DESIGN_APPROVAL ( #5, ( #15 ) ) ;
#2 = EDGE_LOOP ( 'NONE', ( #200, #32, #221 ) ) ;
#3 = VECTOR ( 'NONE', #85, 1000.000000000000000 ) ;
#4 = VECTOR ( 'NONE', #314, 1000.000000000000000 ) ;
#5 = APPROVAL ( #153, 'UNSPECIFIED' ) ;
#6 = VECTOR ( 'NONE', #93, 1000.000000000000100 ) ;
#7 = CC_DESIGN_DATE_AND_TIME_ASSIGNMENT ( #100, #190, ( #15 ) ) ;
#8 = CC_DESIGN_PERSON_AND_ORGANIZATION_ASSIGNMENT ( #178, #142, ( #15 ) ) ;
#9 = CARTESIAN_POINT ( 'NONE',  ( -1.224646799147353100E-015, 15.00000000000000000, 15.00000000000000000 ) ) ;
#10 = VERTEX_POINT ( 'NONE', #77 ) ;
#11 = ORIENTED_EDGE ( 'NONE', *, *, #96, .F. ) ;
#12 = DIRECTION ( 'NONE',  ( -0.0000000000000000000, -0.0000000000000000000, -1.000000000000000000 ) ) ;
#13 = CARTESIAN_POINT ( 'NONE',  ( 15.00000000000000000, 0.0000000000000000000, 15.00000000000000000 ) ) ;
#14 = VERTEX_POINT ( 'NONE', #192 ) ;
#15 = SECURITY_CLASSIFICATION ( '', '', #179 ) ;
#16 = COORDINATED_UNIVERSAL_TIME_OFFSET ( 7, 0, .BEHIND. ) ;
#17 = DIRECTION ( 'NONE',  ( -0.7071067811865474600, 0.7071067811865474600, 0.0000000000000000000 ) ) ;
#18 = ADVANCED_FACE ( 'NONE', ( #64 ), #227, .F. ) ;
#19 = PLANE ( 'NONE',  #182 ) ;
#20 = CC_DESIGN_PERSON_AND_ORGANIZATION_ASSIGNMENT ( #184, #262, ( #39 ) ) ;
#21 = CARTESIAN_POINT ( 'NONE',  ( 14.99999999999999800, 15.00000000000000200, 0.0000000000000000000 ) ) ;
#22 = DIRECTION ( 'NONE',  ( -0.0000000000000000000, -0.0000000000000000000, -1.000000000000000000 ) ) ;
#23 = CC_DESIGN_PERSON_AND_ORGANIZATION_ASSIGNMENT ( #193, #213, ( #39 ) ) ;
#24 = DIRECTION ( 'NONE',  ( 1.000000000000000000, 8.164311994315688900E-017, -0.0000000000000000000 ) ) ;
#25 = ORIENTED_EDGE ( 'NONE', *, *, #63, .T. ) ;
#26 = CALENDAR_DATE ( 2014, 12, 6 ) ;
#27 = ADVANCED_BREP_SHAPE_REPRESENTATION ( 'step_47011', ( #45, #114, #81 ), #117 ) ;
#28 = DATE_AND_TIME ( #210, #238 ) ;
#29 = CC_DESIGN_APPROVAL ( #35, ( #39 ) ) ;
#30 = VECTOR ( 'NONE', #248, 1000.000000000000000 ) ;
#31 = FACE_OUTER_BOUND ( 'NONE', #84, .T. ) ;
#32 = ORIENTED_EDGE ( 'NONE', *, *, #292, .F. ) ;
#33 = ORIENTED_EDGE ( 'NONE', *, *, #191, .F. ) ;
#34 = LINE ( 'NONE', #56, #273 ) ;
#35 = APPROVAL ( #243, 'UNSPECIFIED' ) ;
#36 = DIRECTION ( 'NONE',  ( 0.0000000000000000000, 0.0000000000000000000, 1.000000000000000000 ) ) ;
#37 = CARTESIAN_POINT ( 'NONE',  ( 15.00000000000000000, 0.0000000000000000000, 0.0000000000000000000 ) ) ;
#38 = ORIENTED_EDGE ( 'NONE', *, *, #257, .F. ) ;
#39 = PRODUCT_DEFINITION_FORMATION_WITH_SPECIFIED_SOURCE ( 'ANY', '', #88, .NOT_KNOWN. ) ;
#40 = PLANE ( 'NONE',  #175 ) ;
#41 = CARTESIAN_POINT ( 'NONE',  ( 15.00000000000000000, 0.0000000000000000000, 15.00000000000000000 ) ) ;
#42 = VERTEX_POINT ( 'NONE', #233 ) ;
#43 = DATE_AND_TIME ( #26, #87 ) ;
#44 = APPROVAL_DATE_TIME ( #28, #60 ) ;
#45 = MANIFOLD_SOLID_BREP ( 'Boss-Extrude1', #317 ) ;
#46 = CC_DESIGN_DATE_AND_TIME_ASSIGNMENT ( #156, #234, ( #66 ) ) ;
#47 = LINE ( 'NONE', #119, #6 ) ;
#48 = VECTOR ( 'NONE', #174, 1000.000000000000000 ) ;
#49 = DIRECTION ( 'NONE',  ( 0.7071067811865475700, 0.7071067811865475700, -0.0000000000000000000 ) ) ;
#50 = CC_DESIGN_PERSON_AND_ORGANIZATION_ASSIGNMENT ( #194, #79, ( #66 ) ) ;
#51 = CARTESIAN_POINT ( 'NONE',  ( 15.00000000000000000, 0.0000000000000000000, 15.00000000000000000 ) ) ;
#52 = APPLICATION_CONTEXT ( 'configuration controlled 3d designs of mechanical parts and assemblies' ) ;
#53 = ORIENTED_EDGE ( 'NONE', *, *, #297, .F. ) ;
#54 = PERSON_AND_ORGANIZATION ( #302, #180 ) ;
#55 = LOCAL_TIME ( 10, 55, 13.00000000000000000, #185 ) ;
#56 = CARTESIAN_POINT ( 'NONE',  ( 0.0000000000000000000, 0.0000000000000000000, 0.0000000000000000000 ) ) ;
#57 = CC_DESIGN_APPROVAL ( #60, ( #66 ) ) ;
#58 = VECTOR ( 'NONE', #107, 1000.000000000000000 ) ;
#59 = VECTOR ( 'NONE', #22, 1000.000000000000000 ) ;
#60 = APPROVAL ( #163, 'UNSPECIFIED' ) ;
#61 = ORIENTED_EDGE ( 'NONE', *, *, #320, .T. ) ;
#62 = VERTEX_POINT ( 'NONE', #98 ) ;
#63 = EDGE_CURVE ( 'NONE', #264, #267, #293, .T. ) ;
#64 = FACE_OUTER_BOUND ( 'NONE', #2, .T. ) ;
#65 = LINE ( 'NONE', #13, #105 ) ;
#66 = PRODUCT_DEFINITION ( 'UNKNOWN', '', #39, #176 ) ;
#67 = CARTESIAN_POINT ( 'NONE',  ( 0.0000000000000000000, 0.0000000000000000000, 15.00000000000000000 ) ) ;
#68 = PERSON_AND_ORGANIZATION_ROLE ( 'design_owner' ) ;
#69 = APPROVAL_ROLE ( '' ) ;
#70 = ORIENTED_EDGE ( 'NONE', *, *, #99, .T. ) ;
#71 = CARTESIAN_POINT ( 'NONE',  ( 0.0000000000000000000, 0.0000000000000000000, 15.00000000000000000 ) ) ;
#72 = LINE ( 'NONE', #75, #83 ) ;
#73 = ORIENTED_EDGE ( 'NONE', *, *, #63, .F. ) ;
#74 = CC_DESIGN_PERSON_AND_ORGANIZATION_ASSIGNMENT ( #246, #68, ( #88 ) ) ;
#75 = CARTESIAN_POINT ( 'NONE',  ( 14.99999999999999800, 15.00000000000000200, 15.00000000000000000 ) ) ;
#76 = CALENDAR_DATE ( 2014, 12, 6 ) ;
#77 = CARTESIAN_POINT ( 'NONE',  ( 14.99999999999999800, 15.00000000000000200, 0.0000000000000000000 ) ) ;
#78 = APPROVAL_ROLE ( '' ) ;
#79 = PERSON_AND_ORGANIZATION_ROLE ( 'creator' ) ;
#80 = ADVANCED_FACE ( 'NONE', ( #202 ), #220, .F. ) ;
#81 = AXIS2_PLACEMENT_3D ( 'NONE', #289, #281, #125 ) ;
#82 = ORIENTED_EDGE ( 'NONE', *, *, #297, .T. ) ;
#83 = VECTOR ( 'NONE', #196, 1000.000000000000000 ) ;
#84 = EDGE_LOOP ( 'NONE', ( #303, #53, #271, #299 ) ) ;
#85 = DIRECTION ( 'NONE',  ( -1.156482317317871500E-016, 1.000000000000000000, 0.0000000000000000000 ) ) ;
#86 = CARTESIAN_POINT ( 'NONE',  ( 15.00000000000000000, 0.0000000000000000000, 15.00000000000000000 ) ) ;
#87 = LOCAL_TIME ( 10, 55, 13.00000000000000000, #144 ) ;
#88 = PRODUCT ( 'step_47011', 'step_47011', '', ( #161 ) ) ;
#89 = EDGE_LOOP ( 'NONE', ( #276, #38, #215, #235 ) ) ;
#90 = ORIENTED_EDGE ( 'NONE', *, *, #124, .F. ) ;
#91 = APPROVAL_PERSON_ORGANIZATION ( #54, #5, #78 ) ;
#92 = VECTOR ( 'NONE', #126, 1000.000000000000000 ) ;
#93 = DIRECTION ( 'NONE',  ( 0.7071067811865474600, -0.7071067811865474600, 0.0000000000000000000 ) ) ;
#94 = CARTESIAN_POINT ( 'NONE',  ( 0.0000000000000000000, 0.0000000000000000000, 15.00000000000000000 ) ) ;
#95 = ORIENTED_EDGE ( 'NONE', *, *, #278, .F. ) ;
#96 = EDGE_CURVE ( 'NONE', #267, #10, #282, .T. ) ;
#97 = FACE_OUTER_BOUND ( 'NONE', #112, .T. ) ;
#98 = CARTESIAN_POINT ( 'NONE',  ( -1.224646799147353100E-015, 15.00000000000000000, 0.0000000000000000000 ) ) ;
#99 = EDGE_CURVE ( 'NONE', #283, #62, #128, .T. ) ;
#100 = DATE_AND_TIME ( #76, #166 ) ;
#101 = DIRECTION ( 'NONE',  ( 1.000000000000000000, 0.0000000000000000000, -0.0000000000000000000 ) ) ;
#102 = CARTESIAN_POINT ( 'NONE',  ( -1.224646799147353100E-015, 15.00000000000000000, 0.0000000000000000000 ) ) ;
#103 = DIRECTION ( 'NONE',  ( 1.156482317317871500E-016, -1.000000000000000000, 0.0000000000000000000 ) ) ;
#104 = CARTESIAN_POINT ( 'NONE',  ( -1.224646799147353100E-015, 15.00000000000000000, 0.0000000000000000000 ) ) ;
#105 = VECTOR ( 'NONE', #309, 1000.000000000000100 ) ;
#106 = ADVANCED_FACE ( 'NONE', ( #187 ), #256, .T. ) ;
#107 = DIRECTION ( 'NONE',  ( -1.000000000000000000, -1.156482317317871500E-016, 0.0000000000000000000 ) ) ;
#108 = DIRECTION ( 'NONE',  ( -0.0000000000000000000, -0.0000000000000000000, -1.000000000000000000 ) ) ;
#109 = AXIS2_PLACEMENT_3D ( 'NONE', #201, #247, #145 ) ;
#110 = LINE ( 'NONE', #51, #136 ) ;
#111 = EDGE_CURVE ( 'NONE', #206, #150, #260, .T. ) ;
#112 = EDGE_LOOP ( 'NONE', ( #311, #157, #183 ) ) ;
#113 = CC_DESIGN_SECURITY_CLASSIFICATION ( #15, ( #39 ) ) ;
#114 = MANIFOLD_SOLID_BREP ( 'Boss-Extrude2', #244 ) ;
#115 = CARTESIAN_POINT ( 'NONE',  ( 15.00000000000000000, 0.0000000000000000000, 15.00000000000000000 ) ) ;
#116 = FACE_OUTER_BOUND ( 'NONE', #231, .T. ) ;
#117 =( GEOMETRIC_REPRESENTATION_CONTEXT ( 3 ) GLOBAL_UNCERTAINTY_ASSIGNED_CONTEXT ( ( #226 ) ) GLOBAL_UNIT_ASSIGNED_CONTEXT ( ( #229, #162, #296 ) ) REPRESENTATION_CONTEXT ( 'NONE', 'WORKASPACE' ) );
#118 = CARTESIAN_POINT ( 'NONE',  ( 15.00000000000000000, 0.0000000000000000000, 15.00000000000000000 ) ) ;
#119 = CARTESIAN_POINT ( 'NONE',  ( -1.224646799147353100E-015, 15.00000000000000000, 15.00000000000000000 ) ) ;
#120 = APPROVAL_ROLE ( '' ) ;
#121 = ORIENTED_EDGE ( 'NONE', *, *, #261, .F. ) ;
#122 = LINE ( 'NONE', #219, #270 ) ;
#123 = DIRECTION ( 'NONE',  ( 0.0000000000000000000, 0.0000000000000000000, -1.000000000000000000 ) ) ;
#124 = EDGE_CURVE ( 'NONE', #177, #206, #152, .T. ) ;
#125 = DIRECTION ( 'NONE',  ( 1.000000000000000000, 0.0000000000000000000, 0.0000000000000000000 ) ) ;
#126 = DIRECTION ( 'NONE',  ( -0.0000000000000000000, -0.0000000000000000000, -1.000000000000000000 ) ) ;
#127 = FACE_OUTER_BOUND ( 'NONE', #133, .T. ) ;
#128 = LINE ( 'NONE', #171, #301 ) ;
#129 = DIRECTION ( 'NONE',  ( -8.164311994315688900E-017, 1.000000000000000000, 0.0000000000000000000 ) ) ;
#130 = ADVANCED_FACE ( 'NONE', ( #31 ), #225, .F. ) ;
#131 = DIRECTION ( 'NONE',  ( 0.0000000000000000000, 1.000000000000000000, 0.0000000000000000000 ) ) ;
#132 = AXIS2_PLACEMENT_3D ( 'NONE', #86, #319, #103 ) ;
#133 = EDGE_LOOP ( 'NONE', ( #249, #310, #25 ) ) ;
#134 = EDGE_LOOP ( 'NONE', ( #181, #90, #33, #265 ) ) ;
#135 = LINE ( 'NONE', #279, #321 ) ;
#136 = VECTOR ( 'NONE', #312, 1000.000000000000000 ) ;
#137 = VERTEX_POINT ( 'NONE', #94 ) ;
#138 = ORIENTED_EDGE ( 'NONE', *, *, #204, .T. ) ;
#139 = APPROVAL_DATE_TIME ( #43, #5 ) ;
#140 = VECTOR ( 'NONE', #287, 1000.000000000000100 ) ;
#141 = EDGE_LOOP ( 'NONE', ( #70, #121, #95, #138 ) ) ;
#142 = PERSON_AND_ORGANIZATION_ROLE ( 'classification_officer' ) ;
#143 = CARTESIAN_POINT ( 'NONE',  ( 0.0000000000000000000, 0.0000000000000000000, 15.00000000000000000 ) ) ;
#144 = COORDINATED_UNIVERSAL_TIME_OFFSET ( 7, 0, .BEHIND. ) ;
#145 = DIRECTION ( 'NONE',  ( 1.000000000000000000, 1.156482317317871500E-016, 0.0000000000000000000 ) ) ;
#146 = AXIS2_PLACEMENT_3D ( 'NONE', #67, #131, #245 ) ;
#147 = DIRECTION ( 'NONE',  ( 0.0000000000000000000, 0.0000000000000000000, 1.000000000000000000 ) ) ;
#148 = PLANE ( 'NONE',  #189 ) ;
#149 = FACE_OUTER_BOUND ( 'NONE', #255, .T. ) ;
#150 = VERTEX_POINT ( 'NONE', #37 ) ;
#151 = EDGE_CURVE ( 'NONE', #137, #42, #186, .T. ) ;
#152 = LINE ( 'NONE', #169, #59 ) ;
#153 = APPROVAL_STATUS ( 'not_yet_approved' ) ;
#154 = ORIENTED_EDGE ( 'NONE', *, *, #151, .F. ) ;
#155 = APPROVAL_PERSON_ORGANIZATION ( #300, #35, #120 ) ;
#156 = DATE_AND_TIME ( #160, #55 ) ;
#157 = ORIENTED_EDGE ( 'NONE', *, *, #320, .F. ) ;
#158 = ORIENTED_EDGE ( 'NONE', *, *, #286, .T. ) ;
#159 = COORDINATED_UNIVERSAL_TIME_OFFSET ( 7, 0, .BEHIND. ) ;
#160 = CALENDAR_DATE ( 2014, 12, 6 ) ;
#161 = MECHANICAL_CONTEXT ( 'NONE', #251, 'mechanical' ) ;
#162 =( NAMED_UNIT ( * ) PLANE_ANGLE_UNIT ( ) SI_UNIT ( $, .RADIAN. ) );
#163 = APPROVAL_STATUS ( 'not_yet_approved' ) ;
#164 = CARTESIAN_POINT ( 'NONE',  ( 0.0000000000000000000, 0.0000000000000000000, 15.00000000000000000 ) ) ;
#165 = ORIENTED_EDGE ( 'NONE', *, *, #204, .F. ) ;
#166 = LOCAL_TIME ( 10, 55, 13.00000000000000000, #159 ) ;
#167 = CARTESIAN_POINT ( 'NONE',  ( 15.00000000000000000, 0.0000000000000000000, 0.0000000000000000000 ) ) ;
#168 = DIRECTION ( 'NONE',  ( 1.000000000000000000, 0.0000000000000000000, 0.0000000000000000000 ) ) ;
#169 = CARTESIAN_POINT ( 'NONE',  ( -1.224646799147353100E-015, 15.00000000000000000, 15.00000000000000000 ) ) ;
#170 = LINE ( 'NONE', #164, #92 ) ;
#171 = CARTESIAN_POINT ( 'NONE',  ( 15.00000000000000000, 0.0000000000000000000, 0.0000000000000000000 ) ) ;
#172 = VECTOR ( 'NONE', #168, 1000.000000000000000 ) ;
#173 = ADVANCED_FACE ( 'NONE', ( #97 ), #148, .T. ) ;
#174 = DIRECTION ( 'NONE',  ( -0.0000000000000000000, -0.0000000000000000000, -1.000000000000000000 ) ) ;
#175 = AXIS2_PLACEMENT_3D ( 'NONE', #143, #268, #272 ) ;
#176 = DESIGN_CONTEXT ( 'detailed design', #52, 'design' ) ;
#177 = VERTEX_POINT ( 'NONE', #269 ) ;
#178 = PERSON_AND_ORGANIZATION ( #302, #180 ) ;
#179 = SECURITY_CLASSIFICATION_LEVEL ( 'unclassified' ) ;
#180 = ORGANIZATION ( 'UNSPECIFIED', 'UNSPECIFIED', '' ) ;
#181 = ORIENTED_EDGE ( 'NONE', *, *, #275, .T. ) ;
#182 = AXIS2_PLACEMENT_3D ( 'NONE', #41, #307, #214 ) ;
#183 = ORIENTED_EDGE ( 'NONE', *, *, #111, .F. ) ;
#184 = PERSON_AND_ORGANIZATION ( #302, #180 ) ;
#185 = COORDINATED_UNIVERSAL_TIME_OFFSET ( 7, 0, .BEHIND. ) ;
#186 = LINE ( 'NONE', #316, #172 ) ;
#187 = FACE_OUTER_BOUND ( 'NONE', #216, .T. ) ;
#188 = CARTESIAN_POINT ( 'NONE',  ( 0.0000000000000000000, 0.0000000000000000000, 0.0000000000000000000 ) ) ;
#189 = AXIS2_PLACEMENT_3D ( 'NONE', #188, #123, #288 ) ;
#190 = DATE_TIME_ROLE ( 'classification_date' ) ;
#191 = EDGE_CURVE ( 'NONE', #267, #177, #72, .T. ) ;
#192 = CARTESIAN_POINT ( 'NONE',  ( 0.0000000000000000000, 0.0000000000000000000, 0.0000000000000000000 ) ) ;
#193 = PERSON_AND_ORGANIZATION ( #302, #180 ) ;
#194 = PERSON_AND_ORGANIZATION ( #302, #180 ) ;
#195 = DIRECTION ( 'NONE',  ( -0.7071067811865474600, 0.7071067811865474600, 0.0000000000000000000 ) ) ;
#196 = DIRECTION ( 'NONE',  ( -1.000000000000000000, -1.156482317317871500E-016, 0.0000000000000000000 ) ) ;
#197 = ADVANCED_FACE ( 'NONE', ( #274 ), #19, .F. ) ;
#198 = PLANE ( 'NONE',  #132 ) ;
#199 = VERTEX_POINT ( 'NONE', #203 ) ;
#200 = ORIENTED_EDGE ( 'NONE', *, *, #99, .F. ) ;
#201 = CARTESIAN_POINT ( 'NONE',  ( 14.99999999999999800, 15.00000000000000200, 15.00000000000000000 ) ) ;
#202 = FACE_OUTER_BOUND ( 'NONE', #89, .T. ) ;
#203 = CARTESIAN_POINT ( 'NONE',  ( -1.224646799147353100E-015, 15.00000000000000000, 15.00000000000000000 ) ) ;
#204 = EDGE_CURVE ( 'NONE', #42, #283, #135, .T. ) ;
#205 = FACE_OUTER_BOUND ( 'NONE', #134, .T. ) ;
#206 = VERTEX_POINT ( 'NONE', #102 ) ;
#207 = AXIS2_PLACEMENT_3D ( 'NONE', #9, #49, #195 ) ;
#208 = VECTOR ( 'NONE', #280, 1000.000000000000000 ) ;
#209 = APPROVAL_DATE_TIME ( #222, #35 ) ;
#210 = CALENDAR_DATE ( 2014, 12, 6 ) ;
#211 = DIRECTION ( 'NONE',  ( 1.000000000000000000, 0.0000000000000000000, -0.0000000000000000000 ) ) ;
#212 = AXIS2_PLACEMENT_3D ( 'NONE', #71, #36, #211 ) ;
#213 = PERSON_AND_ORGANIZATION_ROLE ( 'creator' ) ;
#214 = DIRECTION ( 'NONE',  ( 0.7071067811865474600, -0.7071067811865474600, 0.0000000000000000000 ) ) ;
#215 = ORIENTED_EDGE ( 'NONE', *, *, #286, .F. ) ;
#216 = EDGE_LOOP ( 'NONE', ( #258, #158, #259 ) ) ;
#217 = CARTESIAN_POINT ( 'NONE',  ( -1.224646799147353100E-015, 15.00000000000000000, 0.0000000000000000000 ) ) ;
#218 = PRODUCT_DEFINITION_SHAPE ( 'NONE', 'NONE',  #66 ) ;
#219 = CARTESIAN_POINT ( 'NONE',  ( -1.224646799147353100E-015, 15.00000000000000000, 15.00000000000000000 ) ) ;
#220 = PLANE ( 'NONE',  #237 ) ;
#221 = ORIENTED_EDGE ( 'NONE', *, *, #224, .F. ) ;
#222 = DATE_AND_TIME ( #236, #240 ) ;
#223 = SHAPE_DEFINITION_REPRESENTATION ( #218, #27 ) ;
#224 = EDGE_CURVE ( 'NONE', #62, #14, #306, .T. ) ;
#225 = PLANE ( 'NONE',  #207 ) ;
#226 = UNCERTAINTY_MEASURE_WITH_UNIT (LENGTH_MEASURE( 1.000000000000000100E-005 ), #229, 'distance_accuracy_value', 'NONE');
#227 = PLANE ( 'NONE',  #266 ) ;
#228 = ADVANCED_FACE ( 'NONE', ( #127 ), #40, .F. ) ;
#229 =( LENGTH_UNIT ( ) NAMED_UNIT ( * ) SI_UNIT ( .MILLI., .METRE. ) );
#230 = LINE ( 'NONE', #295, #3 ) ;
#231 = EDGE_LOOP ( 'NONE', ( #239, #165, #154, #252 ) ) ;
#232 = PRODUCT_RELATED_PRODUCT_CATEGORY ( 'detail', '', ( #88 ) ) ;
#233 = CARTESIAN_POINT ( 'NONE',  ( 15.00000000000000000, 0.0000000000000000000, 15.00000000000000000 ) ) ;
#234 = DATE_TIME_ROLE ( 'creation_date' ) ;
#235 = ORIENTED_EDGE ( 'NONE', *, *, #261, .T. ) ;
#236 = CALENDAR_DATE ( 2014, 12, 6 ) ;
#237 = AXIS2_PLACEMENT_3D ( 'NONE', #318, #24, #129 ) ;
#238 = LOCAL_TIME ( 10, 55, 13.00000000000000000, #16 ) ;
#239 = ORIENTED_EDGE ( 'NONE', *, *, #292, .T. ) ;
#240 = LOCAL_TIME ( 10, 55, 13.00000000000000000, #253 ) ;
#241 = PERSON_AND_ORGANIZATION ( #302, #180 ) ;
#242 = DIRECTION ( 'NONE',  ( 1.000000000000000000, 0.0000000000000000000, 0.0000000000000000000 ) ) ;
#243 = APPROVAL_STATUS ( 'not_yet_approved' ) ;
#244 = CLOSED_SHELL ( 'NONE', ( #315, #130, #294, #228, #173 ) ) ;
#245 = DIRECTION ( 'NONE',  ( 0.0000000000000000000, -0.0000000000000000000, 1.000000000000000000 ) ) ;
#246 = PERSON_AND_ORGANIZATION ( #302, #180 ) ;
#247 = DIRECTION ( 'NONE',  ( 1.156482317317871500E-016, -1.000000000000000000, 0.0000000000000000000 ) ) ;
#248 = DIRECTION ( 'NONE',  ( 8.164311994315687600E-017, -1.000000000000000000, 0.0000000000000000000 ) ) ;
#249 = ORIENTED_EDGE ( 'NONE', *, *, #191, .T. ) ;
#250 = ADVANCED_FACE ( 'NONE', ( #116 ), #290, .F. ) ;
#251 = APPLICATION_CONTEXT ( 'configuration controlled 3d designs of mechanical parts and assemblies' ) ;
#252 = ORIENTED_EDGE ( 'NONE', *, *, #257, .T. ) ;
#253 = COORDINATED_UNIVERSAL_TIME_OFFSET ( 7, 0, .BEHIND. ) ;
#254 = PLANE ( 'NONE',  #109 ) ;
#255 = EDGE_LOOP ( 'NONE', ( #61, #11, #73, #82 ) ) ;
#256 = PLANE ( 'NONE',  #212 ) ;
#257 = EDGE_CURVE ( 'NONE', #137, #14, #170, .T. ) ;
#258 = ORIENTED_EDGE ( 'NONE', *, *, #278, .T. ) ;
#259 = ORIENTED_EDGE ( 'NONE', *, *, #151, .T. ) ;
#260 = LINE ( 'NONE', #104, #140 ) ;
#261 = EDGE_CURVE ( 'NONE', #199, #62, #122, .T. ) ;
#262 = PERSON_AND_ORGANIZATION_ROLE ( 'design_supplier' ) ;
#263 = CARTESIAN_POINT ( 'NONE',  ( -1.224646799147353100E-015, 15.00000000000000000, 15.00000000000000000 ) ) ;
#264 = VERTEX_POINT ( 'NONE', #118 ) ;
#265 = ORIENTED_EDGE ( 'NONE', *, *, #96, .T. ) ;
#266 = AXIS2_PLACEMENT_3D ( 'NONE', #308, #147, #101 ) ;
#267 = VERTEX_POINT ( 'NONE', #284 ) ;
#268 = DIRECTION ( 'NONE',  ( 0.0000000000000000000, 0.0000000000000000000, -1.000000000000000000 ) ) ;
#269 = CARTESIAN_POINT ( 'NONE',  ( -1.224646799147353100E-015, 15.00000000000000000, 15.00000000000000000 ) ) ;
#270 = VECTOR ( 'NONE', #12, 1000.000000000000000 ) ;
#271 = ORIENTED_EDGE ( 'NONE', *, *, #313, .F. ) ;
#272 = DIRECTION ( 'NONE',  ( -1.000000000000000000, 0.0000000000000000000, 0.0000000000000000000 ) ) ;
#273 = VECTOR ( 'NONE', #242, 1000.000000000000000 ) ;
#274 = FACE_OUTER_BOUND ( 'NONE', #141, .T. ) ;
#275 = EDGE_CURVE ( 'NONE', #10, #206, #304, .T. ) ;
#276 = ORIENTED_EDGE ( 'NONE', *, *, #224, .T. ) ;
#277 = APPROVAL_PERSON_ORGANIZATION ( #241, #60, #69 ) ;
#278 = EDGE_CURVE ( 'NONE', #42, #199, #65, .T. ) ;
#279 = CARTESIAN_POINT ( 'NONE',  ( 15.00000000000000000, 0.0000000000000000000, 15.00000000000000000 ) ) ;
#280 = DIRECTION ( 'NONE',  ( -1.156482317317871500E-016, 1.000000000000000000, 0.0000000000000000000 ) ) ;
#281 = DIRECTION ( 'NONE',  ( 0.0000000000000000000, 0.0000000000000000000, 1.000000000000000000 ) ) ;
#282 = LINE ( 'NONE', #298, #48 ) ;
#283 = VERTEX_POINT ( 'NONE', #167 ) ;
#284 = CARTESIAN_POINT ( 'NONE',  ( 14.99999999999999800, 15.00000000000000200, 15.00000000000000000 ) ) ;
#285 = APPLICATION_PROTOCOL_DEFINITION ( 'international standard', 'config_control_design', 1994, #52 ) ;
#286 = EDGE_CURVE ( 'NONE', #199, #137, #291, .T. ) ;
#287 = DIRECTION ( 'NONE',  ( 0.7071067811865474600, -0.7071067811865474600, 0.0000000000000000000 ) ) ;
#288 = DIRECTION ( 'NONE',  ( -1.000000000000000000, 0.0000000000000000000, 0.0000000000000000000 ) ) ;
#289 = CARTESIAN_POINT ( 'NONE',  ( 0.0000000000000000000, 0.0000000000000000000, 0.0000000000000000000 ) ) ;
#290 = PLANE ( 'NONE',  #146 ) ;
#291 = LINE ( 'NONE', #263, #30 ) ;
#292 = EDGE_CURVE ( 'NONE', #14, #283, #34, .T. ) ;
#293 = LINE ( 'NONE', #115, #208 ) ;
#294 = ADVANCED_FACE ( 'NONE', ( #149 ), #198, .F. ) ;
#295 = CARTESIAN_POINT ( 'NONE',  ( 15.00000000000000000, 0.0000000000000000000, 0.0000000000000000000 ) ) ;
#296 =( NAMED_UNIT ( * ) SI_UNIT ( $, .STERADIAN. ) SOLID_ANGLE_UNIT ( ) );
#297 = EDGE_CURVE ( 'NONE', #264, #150, #110, .T. ) ;
#298 = CARTESIAN_POINT ( 'NONE',  ( 14.99999999999999800, 15.00000000000000200, 15.00000000000000000 ) ) ;
#299 = ORIENTED_EDGE ( 'NONE', *, *, #124, .T. ) ;
#300 = PERSON_AND_ORGANIZATION ( #302, #180 ) ;
#301 = VECTOR ( 'NONE', #17, 1000.000000000000100 ) ;
#302 = PERSON ( 'UNSPECIFIED', 'UNSPECIFIED', 'UNSPECIFIED', ('UNSPECIFIED'), ('UNSPECIFIED'), ('UNSPECIFIED') ) ;
#303 = ORIENTED_EDGE ( 'NONE', *, *, #111, .T. ) ;
#304 = LINE ( 'NONE', #21, #58 ) ;
#305 = APPLICATION_PROTOCOL_DEFINITION ( 'international standard', 'config_control_design', 1994, #251 ) ;
#306 = LINE ( 'NONE', #217, #4 ) ;
#307 = DIRECTION ( 'NONE',  ( -0.7071067811865475700, -0.7071067811865475700, 0.0000000000000000000 ) ) ;
#308 = CARTESIAN_POINT ( 'NONE',  ( 0.0000000000000000000, 0.0000000000000000000, 0.0000000000000000000 ) ) ;
#309 = DIRECTION ( 'NONE',  ( -0.7071067811865474600, 0.7071067811865474600, 0.0000000000000000000 ) ) ;
#310 = ORIENTED_EDGE ( 'NONE', *, *, #313, .T. ) ;
#311 = ORIENTED_EDGE ( 'NONE', *, *, #275, .F. ) ;
#312 = DIRECTION ( 'NONE',  ( -0.0000000000000000000, -0.0000000000000000000, -1.000000000000000000 ) ) ;
#313 = EDGE_CURVE ( 'NONE', #177, #264, #47, .T. ) ;
#314 = DIRECTION ( 'NONE',  ( 8.164311994315687600E-017, -1.000000000000000000, 0.0000000000000000000 ) ) ;
#315 = ADVANCED_FACE ( 'NONE', ( #205 ), #254, .F. ) ;
#316 = CARTESIAN_POINT ( 'NONE',  ( 0.0000000000000000000, 0.0000000000000000000, 15.00000000000000000 ) ) ;
#317 = CLOSED_SHELL ( 'NONE', ( #197, #80, #250, #106, #18 ) ) ;
#318 = CARTESIAN_POINT ( 'NONE',  ( -1.224646799147353100E-015, 15.00000000000000000, 15.00000000000000000 ) ) ;
#319 = DIRECTION ( 'NONE',  ( -1.000000000000000000, -1.156482317317871500E-016, 0.0000000000000000000 ) ) ;
#320 = EDGE_CURVE ( 'NONE', #150, #10, #230, .T. ) ;
#321 = VECTOR ( 'NONE', #108, 1000.000000000000000 ) ;
ENDSEC;
END-ISO-10303-21;
