ISO-10303-21;
HEADER;
FILE_DESCRIPTION (( 'STEP AP203' ),
    '1' );
FILE_NAME ('Web Model 47231_47231.step',
    '2019-01-07T15:27:35',
    ( '' ),
    ( '' ),
    'SwSTEP 2.0',
    'SolidWorks 2016',
    '' );
FILE_SCHEMA (( 'CONFIG_CONTROL_DESIGN' ));
ENDSEC;

DATA;
#1 = DIRECTION ( 'NONE',  ( -1.000000000000000000, 0.0000000000000000000, -0.0000000000000000000 ) ) ;
#2 =( LENGTH_UNIT ( ) NAMED_UNIT ( * ) SI_UNIT ( .MILLI., .METRE. ) );
#3 = DATE_AND_TIME ( #93, #24 ) ;
#4 = DIRECTION ( 'NONE',  ( 0.0000000000000000000, 0.0000000000000000000, 1.000000000000000000 ) ) ;
#5 = APPROVAL_STATUS ( 'not_yet_approved' ) ;
#6 = VECTOR ( 'NONE', #33, 1000.000000000000000 ) ;
#7 = FACE_OUTER_BOUND ( 'NONE', #76, .T. ) ;
#8 = COORDINATED_UNIVERSAL_TIME_OFFSET ( 5, 0, .BEHIND. ) ;
#9 = EDGE_CURVE ( 'NONE', #167, #224, #25, .T. ) ;
#10 = PERSON_AND_ORGANIZATION ( #178, #149 ) ;
#11 = DIRECTION ( 'NONE',  ( 0.0000000000000000000, 0.0000000000000000000, -1.000000000000000000 ) ) ;
#12 = PLANE ( 'NONE',  #203 ) ;
#13 = FACE_OUTER_BOUND ( 'NONE', #176, .T. ) ;
#14 = EDGE_LOOP ( 'NONE', ( #136, #40, #23, #122 ) ) ;
#15 = LOCAL_TIME ( 10, 27, 35.00000000000000000, #8 ) ;
#16 = CC_DESIGN_SECURITY_CLASSIFICATION ( #111, ( #147 ) ) ;
#17 = CARTESIAN_POINT ( 'NONE',  ( 25.00000000000000000, -25.00000000000000000, -2.000000000000000000 ) ) ;
#18 = CARTESIAN_POINT ( 'NONE',  ( 0.0000000000000000000, 0.0000000000000000000, -2.000000000000000000 ) ) ;
#19 = APPROVAL_ROLE ( '' ) ;
#20 = APPROVAL ( #5, 'UNSPECIFIED' ) ;
#21 = ORIENTED_EDGE ( 'NONE', *, *, #9, .T. ) ;
#22 = LINE ( 'NONE', #138, #207 ) ;
#23 = ORIENTED_EDGE ( 'NONE', *, *, #124, .F. ) ;
#24 = LOCAL_TIME ( 10, 27, 35.00000000000000000, #132 ) ;
#25 = LINE ( 'NONE', #46, #106 ) ;
#26 = PRODUCT_RELATED_PRODUCT_CATEGORY ( 'detail', '', ( #159 ) ) ;
#27 = ORIENTED_EDGE ( 'NONE', *, *, #194, .T. ) ;
#28 = CLOSED_SHELL ( 'NONE', ( #38, #185, #166, #141, #70, #184 ) ) ;
#29 = DIRECTION ( 'NONE',  ( 0.0000000000000000000, -0.0000000000000000000, 1.000000000000000000 ) ) ;
#30 = DATE_AND_TIME ( #123, #152 ) ;
#31 = CARTESIAN_POINT ( 'NONE',  ( 25.00000000000000000, 25.00000000000000400, 2.000000000000000000 ) ) ;
#32 = VECTOR ( 'NONE', #163, 1000.000000000000000 ) ;
#33 = DIRECTION ( 'NONE',  ( -0.0000000000000000000, -0.0000000000000000000, -1.000000000000000000 ) ) ;
#34 = CARTESIAN_POINT ( 'NONE',  ( -25.00000000000000400, -25.00000000000000000, -2.000000000000000000 ) ) ;
#35 = DATE_AND_TIME ( #181, #44 ) ;
#36 = CARTESIAN_POINT ( 'NONE',  ( -25.00000000000000400, -25.00000000000000000, 2.000000000000000000 ) ) ;
#37 = ADVANCED_BREP_SHAPE_REPRESENTATION ( 'Web Model 47231_47231', ( #210, #49 ), #143 ) ;
#38 = ADVANCED_FACE ( 'NONE', ( #208 ), #61, .F. ) ;
#39 = FACE_OUTER_BOUND ( 'NONE', #94, .T. ) ;
#40 = ORIENTED_EDGE ( 'NONE', *, *, #109, .F. ) ;
#41 = UNCERTAINTY_MEASURE_WITH_UNIT (LENGTH_MEASURE( 1.000000000000000100E-005 ), #2, 'distance_accuracy_value', 'NONE');
#42 = EDGE_CURVE ( 'NONE', #224, #180, #43, .T. ) ;
#43 = LINE ( 'NONE', #233, #172 ) ;
#44 = LOCAL_TIME ( 10, 27, 35.00000000000000000, #107 ) ;
#45 = APPROVAL_PERSON_ORGANIZATION ( #10, #57, #183 ) ;
#46 = CARTESIAN_POINT ( 'NONE',  ( -25.00000000000000400, 25.00000000000000400, 2.000000000000000000 ) ) ;
#47 = EDGE_LOOP ( 'NONE', ( #158, #21, #67, #27 ) ) ;
#48 = PERSON_AND_ORGANIZATION ( #178, #149 ) ;
#49 = AXIS2_PLACEMENT_3D ( 'NONE', #52, #4, #50 ) ;
#50 = DIRECTION ( 'NONE',  ( 1.000000000000000000, 0.0000000000000000000, 0.0000000000000000000 ) ) ;
#51 = APPLICATION_PROTOCOL_DEFINITION ( 'international standard', 'config_control_design', 1994, #69 ) ;
#52 = CARTESIAN_POINT ( 'NONE',  ( 0.0000000000000000000, 0.0000000000000000000, 0.0000000000000000000 ) ) ;
#53 = EDGE_LOOP ( 'NONE', ( #142, #188, #110, #117 ) ) ;
#54 = PRODUCT_DEFINITION ( 'UNKNOWN', '', #147, #204 ) ;
#55 = FACE_OUTER_BOUND ( 'NONE', #47, .T. ) ;
#56 = ORIENTED_EDGE ( 'NONE', *, *, #187, .F. ) ;
#57 = APPROVAL ( #66, 'UNSPECIFIED' ) ;
#58 = PERSON_AND_ORGANIZATION ( #178, #149 ) ;
#59 = DIRECTION ( 'NONE',  ( 0.0000000000000000000, 1.000000000000000000, 0.0000000000000000000 ) ) ;
#60 = PLANE ( 'NONE',  #189 ) ;
#61 = PLANE ( 'NONE',  #85 ) ;
#62 = CC_DESIGN_PERSON_AND_ORGANIZATION_ASSIGNMENT ( #186, #87, ( #54 ) ) ;
#63 = ORIENTED_EDGE ( 'NONE', *, *, #129, .T. ) ;
#64 = DATE_AND_TIME ( #209, #15 ) ;
#65 = APPLICATION_PROTOCOL_DEFINITION ( 'international standard', 'config_control_design', 1994, #182 ) ;
#66 = APPROVAL_STATUS ( 'not_yet_approved' ) ;
#67 = ORIENTED_EDGE ( 'NONE', *, *, #127, .T. ) ;
#68 = PERSON_AND_ORGANIZATION ( #178, #149 ) ;
#69 = APPLICATION_CONTEXT ( 'configuration controlled 3d designs of mechanical parts and assemblies' ) ;
#70 = ADVANCED_FACE ( 'NONE', ( #55 ), #116, .F. ) ;
#71 = VERTEX_POINT ( 'NONE', #90 ) ;
#72 = CC_DESIGN_PERSON_AND_ORGANIZATION_ASSIGNMENT ( #88, #103, ( #147 ) ) ;
#73 = VERTEX_POINT ( 'NONE', #98 ) ;
#74 = APPROVAL_PERSON_ORGANIZATION ( #226, #146, #19 ) ;
#75 = PRODUCT_DEFINITION_SHAPE ( 'NONE', 'NONE',  #54 ) ;
#76 = EDGE_LOOP ( 'NONE', ( #63, #168, #217, #78 ) ) ;
#77 = CC_DESIGN_DATE_AND_TIME_ASSIGNMENT ( #79, #199, ( #54 ) ) ;
#78 = ORIENTED_EDGE ( 'NONE', *, *, #42, .T. ) ;
#79 = DATE_AND_TIME ( #197, #95 ) ;
#80 = PLANE ( 'NONE',  #97 ) ;
#81 = PLANE ( 'NONE',  #173 ) ;
#82 = CC_DESIGN_PERSON_AND_ORGANIZATION_ASSIGNMENT ( #68, #221, ( #111 ) ) ;
#83 = ORIENTED_EDGE ( 'NONE', *, *, #42, .F. ) ;
#84 = CARTESIAN_POINT ( 'NONE',  ( -25.00000000000000400, 25.00000000000000400, -2.000000000000000000 ) ) ;
#85 = AXIS2_PLACEMENT_3D ( 'NONE', #153, #156, #214 ) ;
#86 = LINE ( 'NONE', #232, #121 ) ;
#87 = PERSON_AND_ORGANIZATION_ROLE ( 'creator' ) ;
#88 = PERSON_AND_ORGANIZATION ( #178, #149 ) ;
#89 = PERSON_AND_ORGANIZATION_ROLE ( 'creator' ) ;
#90 = CARTESIAN_POINT ( 'NONE',  ( -25.00000000000000400, -25.00000000000000000, 2.000000000000000000 ) ) ;
#91 = LINE ( 'NONE', #155, #164 ) ;
#92 = CC_DESIGN_PERSON_AND_ORGANIZATION_ASSIGNMENT ( #58, #89, ( #147 ) ) ;
#93 = CALENDAR_DATE ( 2019, 7, 1 ) ;
#94 = EDGE_LOOP ( 'NONE', ( #105, #83, #211, #228 ) ) ;
#95 = LOCAL_TIME ( 10, 27, 35.00000000000000000, #202 ) ;
#96 = DIRECTION ( 'NONE',  ( 0.0000000000000000000, 0.0000000000000000000, -1.000000000000000000 ) ) ;
#97 = AXIS2_PLACEMENT_3D ( 'NONE', #18, #231, #114 ) ;
#98 = CARTESIAN_POINT ( 'NONE',  ( 25.00000000000000000, 25.00000000000000400, -2.000000000000000000 ) ) ;
#99 = VECTOR ( 'NONE', #59, 1000.000000000000000 ) ;
#100 = DIRECTION ( 'NONE',  ( 0.0000000000000000000, -0.0000000000000000000, -1.000000000000000000 ) ) ;
#101 = CARTESIAN_POINT ( 'NONE',  ( -25.00000000000000400, -25.00000000000000000, -2.000000000000000000 ) ) ;
#102 = DIRECTION ( 'NONE',  ( 1.000000000000000000, 0.0000000000000000000, 0.0000000000000000000 ) ) ;
#103 = PERSON_AND_ORGANIZATION_ROLE ( 'design_supplier' ) ;
#104 =( NAMED_UNIT ( * ) SI_UNIT ( $, .STERADIAN. ) SOLID_ANGLE_UNIT ( ) );
#105 = ORIENTED_EDGE ( 'NONE', *, *, #227, .T. ) ;
#106 = VECTOR ( 'NONE', #175, 1000.000000000000000 ) ;
#107 = COORDINATED_UNIVERSAL_TIME_OFFSET ( 5, 0, .BEHIND. ) ;
#108 = LINE ( 'NONE', #134, #144 ) ;
#109 = EDGE_CURVE ( 'NONE', #167, #73, #201, .T. ) ;
#110 = ORIENTED_EDGE ( 'NONE', *, *, #194, .F. ) ;
#111 = SECURITY_CLASSIFICATION ( '', '', #220 ) ;
#112 = APPROVAL_PERSON_ORGANIZATION ( #48, #20, #119 ) ;
#113 = VERTEX_POINT ( 'NONE', #215 ) ;
#114 = DIRECTION ( 'NONE',  ( -1.000000000000000000, 0.0000000000000000000, -0.0000000000000000000 ) ) ;
#115 = DIRECTION ( 'NONE',  ( 1.000000000000000000, 0.0000000000000000000, 0.0000000000000000000 ) ) ;
#116 = PLANE ( 'NONE',  #154 ) ;
#117 = ORIENTED_EDGE ( 'NONE', *, *, #237, .T. ) ;
#118 = CARTESIAN_POINT ( 'NONE',  ( -25.00000000000000400, -25.00000000000000000, 2.000000000000000000 ) ) ;
#119 = APPROVAL_ROLE ( '' ) ;
#120 = CC_DESIGN_DATE_AND_TIME_ASSIGNMENT ( #35, #140, ( #111 ) ) ;
#121 = VECTOR ( 'NONE', #115, 1000.000000000000000 ) ;
#122 = ORIENTED_EDGE ( 'NONE', *, *, #206, .T. ) ;
#123 = CALENDAR_DATE ( 2019, 7, 1 ) ;
#124 = EDGE_CURVE ( 'NONE', #113, #167, #148, .T. ) ;
#125 = MECHANICAL_CONTEXT ( 'NONE', #69, 'mechanical' ) ;
#126 = LINE ( 'NONE', #36, #32 ) ;
#127 = EDGE_CURVE ( 'NONE', #224, #71, #91, .T. ) ;
#128 = ORIENTED_EDGE ( 'NONE', *, *, #227, .F. ) ;
#129 = EDGE_CURVE ( 'NONE', #180, #222, #130, .T. ) ;
#130 = LINE ( 'NONE', #101, #205 ) ;
#131 = LINE ( 'NONE', #17, #193 ) ;
#132 = COORDINATED_UNIVERSAL_TIME_OFFSET ( 5, 0, .BEHIND. ) ;
#133 = CC_DESIGN_PERSON_AND_ORGANIZATION_ASSIGNMENT ( #139, #200, ( #159 ) ) ;
#134 = CARTESIAN_POINT ( 'NONE',  ( -25.00000000000000400, -25.00000000000000000, -2.000000000000000000 ) ) ;
#135 = DIRECTION ( 'NONE',  ( 0.0000000000000000000, 1.000000000000000000, 0.0000000000000000000 ) ) ;
#136 = ORIENTED_EDGE ( 'NONE', *, *, #187, .T. ) ;
#137 = CARTESIAN_POINT ( 'NONE',  ( 25.00000000000000000, -25.00000000000000000, 2.000000000000000000 ) ) ;
#138 = CARTESIAN_POINT ( 'NONE',  ( -25.00000000000000400, 25.00000000000000400, -2.000000000000000000 ) ) ;
#139 = PERSON_AND_ORGANIZATION ( #178, #149 ) ;
#140 = DATE_TIME_ROLE ( 'classification_date' ) ;
#141 = ADVANCED_FACE ( 'NONE', ( #234 ), #60, .F. ) ;
#142 = ORIENTED_EDGE ( 'NONE', *, *, #170, .T. ) ;
#143 =( GEOMETRIC_REPRESENTATION_CONTEXT ( 3 ) GLOBAL_UNCERTAINTY_ASSIGNED_CONTEXT ( ( #41 ) ) GLOBAL_UNIT_ASSIGNED_CONTEXT ( ( #2, #161, #104 ) ) REPRESENTATION_CONTEXT ( 'NONE', 'WORKASPACE' ) );
#144 = VECTOR ( 'NONE', #191, 1000.000000000000000 ) ;
#145 = COORDINATED_UNIVERSAL_TIME_OFFSET ( 5, 0, .BEHIND. ) ;
#146 = APPROVAL ( #196, 'UNSPECIFIED' ) ;
#147 = PRODUCT_DEFINITION_FORMATION_WITH_SPECIFIED_SOURCE ( 'ANY', '', #159, .NOT_KNOWN. ) ;
#148 = LINE ( 'NONE', #137, #99 ) ;
#149 = ORGANIZATION ( 'UNSPECIFIED', 'UNSPECIFIED', '' ) ;
#150 = VECTOR ( 'NONE', #235, 1000.000000000000000 ) ;
#151 = CARTESIAN_POINT ( 'NONE',  ( -25.00000000000000400, 25.00000000000000400, 2.000000000000000000 ) ) ;
#152 = LOCAL_TIME ( 10, 27, 35.00000000000000000, #145 ) ;
#153 = CARTESIAN_POINT ( 'NONE',  ( 25.00000000000000000, -25.00000000000000000, 2.000000000000000000 ) ) ;
#154 = AXIS2_PLACEMENT_3D ( 'NONE', #216, #96, #1 ) ;
#155 = CARTESIAN_POINT ( 'NONE',  ( -25.00000000000000400, -25.00000000000000000, 2.000000000000000000 ) ) ;
#156 = DIRECTION ( 'NONE',  ( -1.000000000000000000, 0.0000000000000000000, 0.0000000000000000000 ) ) ;
#157 = DIRECTION ( 'NONE',  ( -0.0000000000000000000, -1.000000000000000000, -0.0000000000000000000 ) ) ;
#158 = ORIENTED_EDGE ( 'NONE', *, *, #124, .T. ) ;
#159 = PRODUCT ( 'Web Model 47231_47231', 'Web Model 47231_47231', '', ( #125 ) ) ;
#160 = APPROVAL_DATE_TIME ( #64, #20 ) ;
#161 =( NAMED_UNIT ( * ) PLANE_ANGLE_UNIT ( ) SI_UNIT ( $, .RADIAN. ) );
#162 = CARTESIAN_POINT ( 'NONE',  ( 25.00000000000000000, -25.00000000000000000, 2.000000000000000000 ) ) ;
#163 = DIRECTION ( 'NONE',  ( -0.0000000000000000000, -0.0000000000000000000, -1.000000000000000000 ) ) ;
#164 = VECTOR ( 'NONE', #177, 1000.000000000000000 ) ;
#165 = CC_DESIGN_APPROVAL ( #146, ( #111 ) ) ;
#166 = ADVANCED_FACE ( 'NONE', ( #7 ), #81, .F. ) ;
#167 = VERTEX_POINT ( 'NONE', #195 ) ;
#168 = ORIENTED_EDGE ( 'NONE', *, *, #237, .F. ) ;
#169 = SHAPE_DEFINITION_REPRESENTATION ( #75, #37 ) ;
#170 = EDGE_CURVE ( 'NONE', #222, #225, #108, .T. ) ;
#171 = ORIENTED_EDGE ( 'NONE', *, *, #129, .F. ) ;
#172 = VECTOR ( 'NONE', #236, 1000.000000000000000 ) ;
#173 = AXIS2_PLACEMENT_3D ( 'NONE', #118, #102, #11 ) ;
#174 = DIRECTION ( 'NONE',  ( 0.0000000000000000000, 1.000000000000000000, 0.0000000000000000000 ) ) ;
#175 = DIRECTION ( 'NONE',  ( -1.000000000000000000, -0.0000000000000000000, -0.0000000000000000000 ) ) ;
#176 = EDGE_LOOP ( 'NONE', ( #56, #229, #171, #128 ) ) ;
#177 = DIRECTION ( 'NONE',  ( -0.0000000000000000000, -1.000000000000000000, -0.0000000000000000000 ) ) ;
#178 = PERSON ( 'UNSPECIFIED', 'UNSPECIFIED', 'UNSPECIFIED', ('UNSPECIFIED'), ('UNSPECIFIED'), ('UNSPECIFIED') ) ;
#179 = DIRECTION ( 'NONE',  ( -1.000000000000000000, -0.0000000000000000000, -0.0000000000000000000 ) ) ;
#180 = VERTEX_POINT ( 'NONE', #84 ) ;
#181 = CALENDAR_DATE ( 2019, 7, 1 ) ;
#182 = APPLICATION_CONTEXT ( 'configuration controlled 3d designs of mechanical parts and assemblies' ) ;
#183 = APPROVAL_ROLE ( '' ) ;
#184 = ADVANCED_FACE ( 'NONE', ( #13 ), #80, .T. ) ;
#185 = ADVANCED_FACE ( 'NONE', ( #39 ), #12, .F. ) ;
#186 = PERSON_AND_ORGANIZATION ( #178, #149 ) ;
#187 = EDGE_CURVE ( 'NONE', #225, #73, #131, .T. ) ;
#188 = ORIENTED_EDGE ( 'NONE', *, *, #206, .F. ) ;
#189 = AXIS2_PLACEMENT_3D ( 'NONE', #218, #174, #29 ) ;
#190 = LINE ( 'NONE', #162, #6 ) ;
#191 = DIRECTION ( 'NONE',  ( 1.000000000000000000, 0.0000000000000000000, 0.0000000000000000000 ) ) ;
#192 = DIRECTION ( 'NONE',  ( 0.0000000000000000000, -1.000000000000000000, 0.0000000000000000000 ) ) ;
#193 = VECTOR ( 'NONE', #135, 1000.000000000000000 ) ;
#194 = EDGE_CURVE ( 'NONE', #71, #113, #86, .T. ) ;
#195 = CARTESIAN_POINT ( 'NONE',  ( 25.00000000000000000, 25.00000000000000400, 2.000000000000000000 ) ) ;
#196 = APPROVAL_STATUS ( 'not_yet_approved' ) ;
#197 = CALENDAR_DATE ( 2019, 7, 1 ) ;
#198 = CARTESIAN_POINT ( 'NONE',  ( 25.00000000000000000, -25.00000000000000000, -2.000000000000000000 ) ) ;
#199 = DATE_TIME_ROLE ( 'creation_date' ) ;
#200 = PERSON_AND_ORGANIZATION_ROLE ( 'design_owner' ) ;
#201 = LINE ( 'NONE', #31, #150 ) ;
#202 = COORDINATED_UNIVERSAL_TIME_OFFSET ( 5, 0, .BEHIND. ) ;
#203 = AXIS2_PLACEMENT_3D ( 'NONE', #151, #192, #100 ) ;
#204 = DESIGN_CONTEXT ( 'detailed design', #182, 'design' ) ;
#205 = VECTOR ( 'NONE', #157, 1000.000000000000000 ) ;
#206 = EDGE_CURVE ( 'NONE', #113, #225, #190, .T. ) ;
#207 = VECTOR ( 'NONE', #179, 1000.000000000000000 ) ;
#208 = FACE_OUTER_BOUND ( 'NONE', #14, .T. ) ;
#209 = CALENDAR_DATE ( 2019, 7, 1 ) ;
#210 = MANIFOLD_SOLID_BREP ( 'Boss-Extrude1', #28 ) ;
#211 = ORIENTED_EDGE ( 'NONE', *, *, #9, .F. ) ;
#212 = CC_DESIGN_APPROVAL ( #57, ( #54 ) ) ;
#213 = CARTESIAN_POINT ( 'NONE',  ( -25.00000000000000400, 25.00000000000000400, 2.000000000000000000 ) ) ;
#214 = DIRECTION ( 'NONE',  ( 0.0000000000000000000, 0.0000000000000000000, 1.000000000000000000 ) ) ;
#215 = CARTESIAN_POINT ( 'NONE',  ( 25.00000000000000000, -25.00000000000000000, 2.000000000000000000 ) ) ;
#216 = CARTESIAN_POINT ( 'NONE',  ( 0.0000000000000000000, 0.0000000000000000000, 2.000000000000000000 ) ) ;
#217 = ORIENTED_EDGE ( 'NONE', *, *, #127, .F. ) ;
#218 = CARTESIAN_POINT ( 'NONE',  ( -25.00000000000000400, -25.00000000000000000, 2.000000000000000000 ) ) ;
#219 = CC_DESIGN_APPROVAL ( #20, ( #147 ) ) ;
#220 = SECURITY_CLASSIFICATION_LEVEL ( 'unclassified' ) ;
#221 = PERSON_AND_ORGANIZATION_ROLE ( 'classification_officer' ) ;
#222 = VERTEX_POINT ( 'NONE', #34 ) ;
#223 = APPROVAL_DATE_TIME ( #30, #146 ) ;
#224 = VERTEX_POINT ( 'NONE', #213 ) ;
#225 = VERTEX_POINT ( 'NONE', #198 ) ;
#226 = PERSON_AND_ORGANIZATION ( #178, #149 ) ;
#227 = EDGE_CURVE ( 'NONE', #73, #180, #22, .T. ) ;
#228 = ORIENTED_EDGE ( 'NONE', *, *, #109, .T. ) ;
#229 = ORIENTED_EDGE ( 'NONE', *, *, #170, .F. ) ;
#230 = APPROVAL_DATE_TIME ( #3, #57 ) ;
#231 = DIRECTION ( 'NONE',  ( 0.0000000000000000000, 0.0000000000000000000, -1.000000000000000000 ) ) ;
#232 = CARTESIAN_POINT ( 'NONE',  ( -25.00000000000000400, -25.00000000000000000, 2.000000000000000000 ) ) ;
#233 = CARTESIAN_POINT ( 'NONE',  ( -25.00000000000000400, 25.00000000000000400, 2.000000000000000000 ) ) ;
#234 = FACE_OUTER_BOUND ( 'NONE', #53, .T. ) ;
#235 = DIRECTION ( 'NONE',  ( -0.0000000000000000000, -0.0000000000000000000, -1.000000000000000000 ) ) ;
#236 = DIRECTION ( 'NONE',  ( -0.0000000000000000000, -0.0000000000000000000, -1.000000000000000000 ) ) ;
#237 = EDGE_CURVE ( 'NONE', #71, #222, #126, .T. ) ;
ENDSEC;
END-ISO-10303-21;
