ISO-10303-21;
HEADER;
FILE_DESCRIPTION (( 'STEP AP203' ),
    '1' );
FILE_NAME ('Web Model 45570_49646.step',
    '2019-01-07T15:33:32',
    ( '' ),
    ( '' ),
    'SwSTEP 2.0',
    'SolidWorks 2016',
    '' );
FILE_SCHEMA (( 'CONFIG_CONTROL_DESIGN' ));
ENDSEC;

DATA;
#1 = PERSON_AND_ORGANIZATION_ROLE ( 'design_supplier' ) ;
#2 = DIRECTION ( 'NONE',  ( 0.0000000000000000000, 0.0000000000000000000, 1.000000000000000000 ) ) ;
#3 = EDGE_CURVE ( 'NONE', #144, #111, #113, .T. ) ;
#4 = APPLICATION_PROTOCOL_DEFINITION ( 'international standard', 'config_control_design', 1994, #89 ) ;
#5 = SECURITY_CLASSIFICATION_LEVEL ( 'unclassified' ) ;
#6 = ORIENTED_EDGE ( 'NONE', *, *, #94, .T. ) ;
#7 = ORIENTED_EDGE ( 'NONE', *, *, #3, .F. ) ;
#8 = CIRCLE ( 'NONE', #26, 20.00000000000000000 ) ;
#9 = CALENDAR_DATE ( 2019, 7, 1 ) ;
#10 = CARTESIAN_POINT ( 'NONE',  ( 0.0000000000000000000, 0.0000000000000000000, -2.000000000000000000 ) ) ;
#11 = PRODUCT_DEFINITION_FORMATION_WITH_SPECIFIED_SOURCE ( 'ANY', '', #47, .NOT_KNOWN. ) ;
#12 = DIRECTION ( 'NONE',  ( 1.000000000000000000, 0.0000000000000000000, 0.0000000000000000000 ) ) ;
#13 = CARTESIAN_POINT ( 'NONE',  ( 0.0000000000000000000, 0.0000000000000000000, -2.000000000000000000 ) ) ;
#14 =( GEOMETRIC_REPRESENTATION_CONTEXT ( 3 ) GLOBAL_UNCERTAINTY_ASSIGNED_CONTEXT ( ( #106 ) ) GLOBAL_UNIT_ASSIGNED_CONTEXT ( ( #36, #103, #74 ) ) REPRESENTATION_CONTEXT ( 'NONE', 'WORKASPACE' ) );
#15 = APPROVAL_STATUS ( 'not_yet_approved' ) ;
#16 = APPROVAL_ROLE ( '' ) ;
#17 = COORDINATED_UNIVERSAL_TIME_OFFSET ( 5, 0, .BEHIND. ) ;
#18 = APPROVAL_ROLE ( '' ) ;
#19 = APPROVAL ( #163, 'UNSPECIFIED' ) ;
#20 = PERSON_AND_ORGANIZATION ( #171, #139 ) ;
#21 = APPROVAL_PERSON_ORGANIZATION ( #63, #19, #16 ) ;
#22 = AXIS2_PLACEMENT_3D ( 'NONE', #46, #70, #80 ) ;
#23 = COORDINATED_UNIVERSAL_TIME_OFFSET ( 5, 0, .BEHIND. ) ;
#24 = AXIS2_PLACEMENT_3D ( 'NONE', #136, #66, #35 ) ;
#25 = CARTESIAN_POINT ( 'NONE',  ( 20.00000000000000000, 2.449293598294706500E-015, 2.000000000000000000 ) ) ;
#26 = AXIS2_PLACEMENT_3D ( 'NONE', #13, #143, #30 ) ;
#27 = CC_DESIGN_PERSON_AND_ORGANIZATION_ASSIGNMENT ( #141, #119, ( #11 ) ) ;
#28 = COORDINATED_UNIVERSAL_TIME_OFFSET ( 5, 0, .BEHIND. ) ;
#29 = EDGE_CURVE ( 'NONE', #111, #112, #170, .T. ) ;
#30 = DIRECTION ( 'NONE',  ( 1.000000000000000000, 0.0000000000000000000, 0.0000000000000000000 ) ) ;
#31 = PERSON_AND_ORGANIZATION ( #171, #139 ) ;
#32 = ORIENTED_EDGE ( 'NONE', *, *, #29, .F. ) ;
#33 = ORIENTED_EDGE ( 'NONE', *, *, #168, .F. ) ;
#34 = DIRECTION ( 'NONE',  ( -0.0000000000000000000, -0.0000000000000000000, -1.000000000000000000 ) ) ;
#35 = DIRECTION ( 'NONE',  ( -1.000000000000000000, 0.0000000000000000000, 0.0000000000000000000 ) ) ;
#36 =( LENGTH_UNIT ( ) NAMED_UNIT ( * ) SI_UNIT ( .MILLI., .METRE. ) );
#37 = ADVANCED_BREP_SHAPE_REPRESENTATION ( 'Web Model 45570_49646', ( #59, #77 ), #14 ) ;
#38 = CC_DESIGN_SECURITY_CLASSIFICATION ( #92, ( #11 ) ) ;
#39 = APPROVAL_DATE_TIME ( #153, #159 ) ;
#40 = DIRECTION ( 'NONE',  ( 1.000000000000000000, 0.0000000000000000000, 0.0000000000000000000 ) ) ;
#41 = ORIENTED_EDGE ( 'NONE', *, *, #3, .T. ) ;
#42 = LINE ( 'NONE', #68, #96 ) ;
#43 = APPROVAL_DATE_TIME ( #100, #19 ) ;
#44 = VERTEX_POINT ( 'NONE', #83 ) ;
#45 = LOCAL_TIME ( 10, 33, 32.00000000000000000, #57 ) ;
#46 = CARTESIAN_POINT ( 'NONE',  ( 0.0000000000000000000, 0.0000000000000000000, 2.000000000000000000 ) ) ;
#47 = PRODUCT ( 'Web Model 45570_49646', 'Web Model 45570_49646', '', ( #91 ) ) ;
#48 = CC_DESIGN_PERSON_AND_ORGANIZATION_ASSIGNMENT ( #158, #73, ( #95 ) ) ;
#49 = DIRECTION ( 'NONE',  ( -1.000000000000000000, 0.0000000000000000000, 0.0000000000000000000 ) ) ;
#50 = DIRECTION ( 'NONE',  ( -0.0000000000000000000, -0.0000000000000000000, -1.000000000000000000 ) ) ;
#51 = CC_DESIGN_APPROVAL ( #19, ( #11 ) ) ;
#52 = DESIGN_CONTEXT ( 'detailed design', #55, 'design' ) ;
#53 = APPROVAL_DATE_TIME ( #82, #97 ) ;
#54 = CC_DESIGN_APPROVAL ( #159, ( #92 ) ) ;
#55 = APPLICATION_CONTEXT ( 'configuration controlled 3d designs of mechanical parts and assemblies' ) ;
#56 = DATE_AND_TIME ( #133, #154 ) ;
#57 = COORDINATED_UNIVERSAL_TIME_OFFSET ( 5, 0, .BEHIND. ) ;
#58 = AXIS2_PLACEMENT_3D ( 'NONE', #10, #117, #79 ) ;
#59 = MANIFOLD_SOLID_BREP ( 'Boss-Extrude1', #145 ) ;
#60 = CC_DESIGN_DATE_AND_TIME_ASSIGNMENT ( #124, #108, ( #92 ) ) ;
#61 = ORIENTED_EDGE ( 'NONE', *, *, #150, .F. ) ;
#62 = LOCAL_TIME ( 10, 33, 32.00000000000000000, #131 ) ;
#63 = PERSON_AND_ORGANIZATION ( #171, #139 ) ;
#64 = AXIS2_PLACEMENT_3D ( 'NONE', #116, #34, #49 ) ;
#65 = ORIENTED_EDGE ( 'NONE', *, *, #168, .T. ) ;
#66 = DIRECTION ( 'NONE',  ( -0.0000000000000000000, -0.0000000000000000000, -1.000000000000000000 ) ) ;
#67 = ADVANCED_FACE ( 'NONE', ( #135 ), #104, .T. ) ;
#68 = CARTESIAN_POINT ( 'NONE',  ( 20.00000000000000000, 2.449293598294706500E-015, 2.000000000000000000 ) ) ;
#69 = EDGE_LOOP ( 'NONE', ( #6, #41 ) ) ;
#70 = DIRECTION ( 'NONE',  ( 0.0000000000000000000, 0.0000000000000000000, 1.000000000000000000 ) ) ;
#71 = FACE_OUTER_BOUND ( 'NONE', #69, .T. ) ;
#72 = PERSON_AND_ORGANIZATION_ROLE ( 'classification_officer' ) ;
#73 = PERSON_AND_ORGANIZATION_ROLE ( 'creator' ) ;
#74 =( NAMED_UNIT ( * ) SI_UNIT ( $, .STERADIAN. ) SOLID_ANGLE_UNIT ( ) );
#75 = EDGE_LOOP ( 'NONE', ( #118, #121, #147, #174 ) ) ;
#76 = CIRCLE ( 'NONE', #157, 20.00000000000000000 ) ;
#77 = AXIS2_PLACEMENT_3D ( 'NONE', #151, #175, #165 ) ;
#78 = EDGE_LOOP ( 'NONE', ( #7, #125, #65, #32 ) ) ;
#79 = DIRECTION ( 'NONE',  ( 1.000000000000000000, 0.0000000000000000000, -0.0000000000000000000 ) ) ;
#80 = DIRECTION ( 'NONE',  ( 1.000000000000000000, 0.0000000000000000000, 0.0000000000000000000 ) ) ;
#81 = ADVANCED_FACE ( 'NONE', ( #90 ), #129, .T. ) ;
#82 = DATE_AND_TIME ( #98, #132 ) ;
#83 = CARTESIAN_POINT ( 'NONE',  ( 20.00000000000000000, 2.449293598294706500E-015, -2.000000000000000000 ) ) ;
#84 = PERSON_AND_ORGANIZATION ( #171, #139 ) ;
#85 = CIRCLE ( 'NONE', #155, 20.00000000000000000 ) ;
#86 = ADVANCED_FACE ( 'NONE', ( #109 ), #160, .F. ) ;
#87 = DIRECTION ( 'NONE',  ( 1.000000000000000000, 0.0000000000000000000, -0.0000000000000000000 ) ) ;
#88 = CALENDAR_DATE ( 2019, 7, 1 ) ;
#89 = APPLICATION_CONTEXT ( 'configuration controlled 3d designs of mechanical parts and assemblies' ) ;
#90 = FACE_OUTER_BOUND ( 'NONE', #78, .T. ) ;
#91 = MECHANICAL_CONTEXT ( 'NONE', #89, 'mechanical' ) ;
#92 = SECURITY_CLASSIFICATION ( '', '', #5 ) ;
#93 = PERSON_AND_ORGANIZATION ( #171, #139 ) ;
#94 = EDGE_CURVE ( 'NONE', #111, #144, #85, .T. ) ;
#95 = PRODUCT_DEFINITION ( 'UNKNOWN', '', #11, #52 ) ;
#96 = VECTOR ( 'NONE', #101, 1000.000000000000000 ) ;
#97 = APPROVAL ( #120, 'UNSPECIFIED' ) ;
#98 = CALENDAR_DATE ( 2019, 7, 1 ) ;
#99 = DIRECTION ( 'NONE',  ( 0.0000000000000000000, 0.0000000000000000000, 1.000000000000000000 ) ) ;
#100 = DATE_AND_TIME ( #102, #167 ) ;
#101 = DIRECTION ( 'NONE',  ( -0.0000000000000000000, -0.0000000000000000000, -1.000000000000000000 ) ) ;
#102 = CALENDAR_DATE ( 2019, 7, 1 ) ;
#103 =( NAMED_UNIT ( * ) PLANE_ANGLE_UNIT ( ) SI_UNIT ( $, .RADIAN. ) );
#104 = CYLINDRICAL_SURFACE ( 'NONE', #24, 20.00000000000000000 ) ;
#105 = CC_DESIGN_APPROVAL ( #97, ( #95 ) ) ;
#106 = UNCERTAINTY_MEASURE_WITH_UNIT (LENGTH_MEASURE( 1.000000000000000100E-005 ), #36, 'distance_accuracy_value', 'NONE');
#107 = APPROVAL_PERSON_ORGANIZATION ( #84, #159, #18 ) ;
#108 = DATE_TIME_ROLE ( 'classification_date' ) ;
#109 = FACE_OUTER_BOUND ( 'NONE', #164, .T. ) ;
#110 = AXIS2_PLACEMENT_3D ( 'NONE', #130, #142, #87 ) ;
#111 = VERTEX_POINT ( 'NONE', #115 ) ;
#112 = VERTEX_POINT ( 'NONE', #149 ) ;
#113 = CIRCLE ( 'NONE', #22, 20.00000000000000000 ) ;
#114 = CC_DESIGN_DATE_AND_TIME_ASSIGNMENT ( #56, #162, ( #95 ) ) ;
#115 = CARTESIAN_POINT ( 'NONE',  ( -20.00000000000000000, 0.0000000000000000000, 2.000000000000000000 ) ) ;
#116 = CARTESIAN_POINT ( 'NONE',  ( 0.0000000000000000000, 0.0000000000000000000, 2.000000000000000000 ) ) ;
#117 = DIRECTION ( 'NONE',  ( 0.0000000000000000000, 0.0000000000000000000, 1.000000000000000000 ) ) ;
#118 = ORIENTED_EDGE ( 'NONE', *, *, #156, .F. ) ;
#119 = PERSON_AND_ORGANIZATION_ROLE ( 'creator' ) ;
#120 = APPROVAL_STATUS ( 'not_yet_approved' ) ;
#121 = ORIENTED_EDGE ( 'NONE', *, *, #94, .F. ) ;
#122 = PRODUCT_RELATED_PRODUCT_CATEGORY ( 'detail', '', ( #47 ) ) ;
#123 = APPROVAL_PERSON_ORGANIZATION ( #134, #97, #138 ) ;
#124 = DATE_AND_TIME ( #9, #45 ) ;
#125 = ORIENTED_EDGE ( 'NONE', *, *, #156, .T. ) ;
#126 = CC_DESIGN_PERSON_AND_ORGANIZATION_ASSIGNMENT ( #20, #72, ( #92 ) ) ;
#127 = CARTESIAN_POINT ( 'NONE',  ( 0.0000000000000000000, 0.0000000000000000000, -2.000000000000000000 ) ) ;
#128 = PERSON_AND_ORGANIZATION_ROLE ( 'design_owner' ) ;
#129 = CYLINDRICAL_SURFACE ( 'NONE', #64, 20.00000000000000000 ) ;
#130 = CARTESIAN_POINT ( 'NONE',  ( 0.0000000000000000000, 0.0000000000000000000, 2.000000000000000000 ) ) ;
#131 = COORDINATED_UNIVERSAL_TIME_OFFSET ( 5, 0, .BEHIND. ) ;
#132 = LOCAL_TIME ( 10, 33, 32.00000000000000000, #23 ) ;
#133 = CALENDAR_DATE ( 2019, 7, 1 ) ;
#134 = PERSON_AND_ORGANIZATION ( #171, #139 ) ;
#135 = FACE_OUTER_BOUND ( 'NONE', #75, .T. ) ;
#136 = CARTESIAN_POINT ( 'NONE',  ( 0.0000000000000000000, 0.0000000000000000000, 2.000000000000000000 ) ) ;
#137 = PLANE ( 'NONE',  #110 ) ;
#138 = APPROVAL_ROLE ( '' ) ;
#139 = ORGANIZATION ( 'UNSPECIFIED', 'UNSPECIFIED', '' ) ;
#140 = APPLICATION_PROTOCOL_DEFINITION ( 'international standard', 'config_control_design', 1994, #55 ) ;
#141 = PERSON_AND_ORGANIZATION ( #171, #139 ) ;
#142 = DIRECTION ( 'NONE',  ( 0.0000000000000000000, 0.0000000000000000000, 1.000000000000000000 ) ) ;
#143 = DIRECTION ( 'NONE',  ( 0.0000000000000000000, 0.0000000000000000000, 1.000000000000000000 ) ) ;
#144 = VERTEX_POINT ( 'NONE', #25 ) ;
#145 = CLOSED_SHELL ( 'NONE', ( #81, #67, #161, #86 ) ) ;
#146 = PRODUCT_DEFINITION_SHAPE ( 'NONE', 'NONE',  #95 ) ;
#147 = ORIENTED_EDGE ( 'NONE', *, *, #29, .T. ) ;
#148 = CARTESIAN_POINT ( 'NONE',  ( -20.00000000000000000, 0.0000000000000000000, 2.000000000000000000 ) ) ;
#149 = CARTESIAN_POINT ( 'NONE',  ( -20.00000000000000000, 0.0000000000000000000, -2.000000000000000000 ) ) ;
#150 = EDGE_CURVE ( 'NONE', #112, #44, #8, .T. ) ;
#151 = CARTESIAN_POINT ( 'NONE',  ( 0.0000000000000000000, 0.0000000000000000000, 0.0000000000000000000 ) ) ;
#152 = CC_DESIGN_PERSON_AND_ORGANIZATION_ASSIGNMENT ( #31, #128, ( #47 ) ) ;
#153 = DATE_AND_TIME ( #88, #62 ) ;
#154 = LOCAL_TIME ( 10, 33, 32.00000000000000000, #17 ) ;
#155 = AXIS2_PLACEMENT_3D ( 'NONE', #173, #99, #12 ) ;
#156 = EDGE_CURVE ( 'NONE', #144, #44, #42, .T. ) ;
#157 = AXIS2_PLACEMENT_3D ( 'NONE', #127, #2, #40 ) ;
#158 = PERSON_AND_ORGANIZATION ( #171, #139 ) ;
#159 = APPROVAL ( #15, 'UNSPECIFIED' ) ;
#160 = PLANE ( 'NONE',  #58 ) ;
#161 = ADVANCED_FACE ( 'NONE', ( #71 ), #137, .T. ) ;
#162 = DATE_TIME_ROLE ( 'creation_date' ) ;
#163 = APPROVAL_STATUS ( 'not_yet_approved' ) ;
#164 = EDGE_LOOP ( 'NONE', ( #61, #33 ) ) ;
#165 = DIRECTION ( 'NONE',  ( 1.000000000000000000, 0.0000000000000000000, 0.0000000000000000000 ) ) ;
#166 = CC_DESIGN_PERSON_AND_ORGANIZATION_ASSIGNMENT ( #93, #1, ( #11 ) ) ;
#167 = LOCAL_TIME ( 10, 33, 32.00000000000000000, #28 ) ;
#168 = EDGE_CURVE ( 'NONE', #44, #112, #76, .T. ) ;
#169 = VECTOR ( 'NONE', #50, 1000.000000000000000 ) ;
#170 = LINE ( 'NONE', #148, #169 ) ;
#171 = PERSON ( 'UNSPECIFIED', 'UNSPECIFIED', 'UNSPECIFIED', ('UNSPECIFIED'), ('UNSPECIFIED'), ('UNSPECIFIED') ) ;
#172 = SHAPE_DEFINITION_REPRESENTATION ( #146, #37 ) ;
#173 = CARTESIAN_POINT ( 'NONE',  ( 0.0000000000000000000, 0.0000000000000000000, 2.000000000000000000 ) ) ;
#174 = ORIENTED_EDGE ( 'NONE', *, *, #150, .T. ) ;
#175 = DIRECTION ( 'NONE',  ( 0.0000000000000000000, 0.0000000000000000000, 1.000000000000000000 ) ) ;
ENDSEC;
END-ISO-10303-21;
