ISO-10303-21;
HEADER;
FILE_DESCRIPTION (( 'STEP AP203' ),
    '1' );
FILE_NAME ('Web Model 47022_48390.step',
    '2017-03-01T18:45:29',
    ( '' ),
    ( '' ),
    'SwSTEP 2.0',
    'SolidWorks 2016',
    '' );
FILE_SCHEMA (( 'CONFIG_CONTROL_DESIGN' ));
ENDSEC;

DATA;
#1 = CARTESIAN_POINT ( 'NONE',  ( 17.50000000000000000, 0.0000000000000000000, 0.0000000000000000000 ) ) ;
#2 = VECTOR ( 'NONE', #202, 1000.000000000000000 ) ;
#3 = DIRECTION ( 'NONE',  ( -0.0000000000000000000, -0.0000000000000000000, -1.000000000000000000 ) ) ;
#4 = APPROVAL_DATE_TIME ( #103, #90 ) ;
#5 = VECTOR ( 'NONE', #151, 1000.000000000000000 ) ;
#6 = APPROVAL_ROLE ( '' ) ;
#7 = ORIENTED_EDGE ( 'NONE', *, *, #73, .F. ) ;
#8 = VECTOR ( 'NONE', #3, 1000.000000000000000 ) ;
#9 = DIRECTION ( 'NONE',  ( 0.0000000000000000000, 0.0000000000000000000, 1.000000000000000000 ) ) ;
#10 = ORIENTED_EDGE ( 'NONE', *, *, #73, .T. ) ;
#11 = PERSON_AND_ORGANIZATION_ROLE ( 'creator' ) ;
#12 = FACE_OUTER_BOUND ( 'NONE', #178, .T. ) ;
#13 = LOCAL_TIME ( 13, 45, 29.00000000000000000, #41 ) ;
#14 = PERSON_AND_ORGANIZATION ( #169, #157 ) ;
#15 = CARTESIAN_POINT ( 'NONE',  ( 0.0000000000000000000, 0.0000000000000000000, 3.000000000000000000 ) ) ;
#16 = CC_DESIGN_APPROVAL ( #168, ( #195 ) ) ;
#17 = APPROVAL_STATUS ( 'not_yet_approved' ) ;
#18 = CARTESIAN_POINT ( 'NONE',  ( 0.0000000000000000000, 0.0000000000000000000, 3.000000000000000000 ) ) ;
#19 = VERTEX_POINT ( 'NONE', #233 ) ;
#20 = EDGE_LOOP ( 'NONE', ( #140, #7, #99, #34 ) ) ;
#21 = MECHANICAL_CONTEXT ( 'NONE', #74, 'mechanical' ) ;
#22 = ADVANCED_FACE ( 'NONE', ( #102 ), #207, .F. ) ;
#23 = PRODUCT_RELATED_PRODUCT_CATEGORY ( 'detail', '', ( #227 ) ) ;
#24 = PERSON_AND_ORGANIZATION ( #169, #157 ) ;
#25 = LINE ( 'NONE', #196, #113 ) ;
#26 = CARTESIAN_POINT ( 'NONE',  ( 0.0000000000000000000, 12.49999999999999600, 3.000000000000000000 ) ) ;
#27 = VERTEX_POINT ( 'NONE', #122 ) ;
#28 = APPROVAL_PERSON_ORGANIZATION ( #59, #148, #219 ) ;
#29 = COORDINATED_UNIVERSAL_TIME_OFFSET ( 5, 0, .BEHIND. ) ;
#30 = CC_DESIGN_PERSON_AND_ORGANIZATION_ASSIGNMENT ( #112, #63, ( #195 ) ) ;
#31 = LOCAL_TIME ( 13, 45, 29.00000000000000000, #29 ) ;
#32 = EDGE_CURVE ( 'NONE', #19, #96, #25, .T. ) ;
#33 = CARTESIAN_POINT ( 'NONE',  ( 0.0000000000000000000, 12.49999999999999600, 3.000000000000000000 ) ) ;
#34 = ORIENTED_EDGE ( 'NONE', *, *, #60, .T. ) ;
#35 = DATE_AND_TIME ( #40, #13 ) ;
#36 = DATE_AND_TIME ( #56, #31 ) ;
#37 = DIRECTION ( 'NONE',  ( 1.000000000000000000, 0.0000000000000000000, 0.0000000000000000000 ) ) ;
#38 = ORIENTED_EDGE ( 'NONE', *, *, #93, .F. ) ;
#39 = UNCERTAINTY_MEASURE_WITH_UNIT (LENGTH_MEASURE( 1.000000000000000100E-005 ), #194, 'distance_accuracy_value', 'NONE');
#40 = CALENDAR_DATE ( 2017, 1, 3 ) ;
#41 = COORDINATED_UNIVERSAL_TIME_OFFSET ( 5, 0, .BEHIND. ) ;
#42 = CC_DESIGN_PERSON_AND_ORGANIZATION_ASSIGNMENT ( #44, #155, ( #195 ) ) ;
#43 = SHAPE_DEFINITION_REPRESENTATION ( #67, #133 ) ;
#44 = PERSON_AND_ORGANIZATION ( #169, #157 ) ;
#45 = EDGE_CURVE ( 'NONE', #134, #27, #46, .T. ) ;
#46 = LINE ( 'NONE', #117, #152 ) ;
#47 = DIRECTION ( 'NONE',  ( 1.000000000000000000, 0.0000000000000000000, 0.0000000000000000000 ) ) ;
#48 = ORIENTED_EDGE ( 'NONE', *, *, #57, .T. ) ;
#49 =( NAMED_UNIT ( * ) PLANE_ANGLE_UNIT ( ) SI_UNIT ( $, .RADIAN. ) );
#50 = ORIENTED_EDGE ( 'NONE', *, *, #32, .T. ) ;
#51 = ORIENTED_EDGE ( 'NONE', *, *, #94, .T. ) ;
#52 = CARTESIAN_POINT ( 'NONE',  ( 17.50000000000000000, 0.0000000000000000000, 3.000000000000000000 ) ) ;
#53 = CARTESIAN_POINT ( 'NONE',  ( 0.0000000000000000000, 0.0000000000000000000, 3.000000000000000000 ) ) ;
#54 = COORDINATED_UNIVERSAL_TIME_OFFSET ( 5, 0, .BEHIND. ) ;
#55 = SECURITY_CLASSIFICATION ( '', '', #72 ) ;
#56 = CALENDAR_DATE ( 2017, 1, 3 ) ;
#57 = EDGE_CURVE ( 'NONE', #221, #225, #156, .T. ) ;
#58 = CARTESIAN_POINT ( 'NONE',  ( 0.0000000000000000000, 12.49999999999999600, 3.000000000000000000 ) ) ;
#59 = PERSON_AND_ORGANIZATION ( #169, #157 ) ;
#60 = EDGE_CURVE ( 'NONE', #181, #139, #164, .T. ) ;
#61 = DIRECTION ( 'NONE',  ( 0.0000000000000000000, 0.0000000000000000000, -1.000000000000000000 ) ) ;
#62 = ADVANCED_FACE ( 'NONE', ( #141 ), #111, .F. ) ;
#63 = PERSON_AND_ORGANIZATION_ROLE ( 'design_supplier' ) ;
#64 = ORIENTED_EDGE ( 'NONE', *, *, #154, .F. ) ;
#65 = CALENDAR_DATE ( 2017, 1, 3 ) ;
#66 = CC_DESIGN_PERSON_AND_ORGANIZATION_ASSIGNMENT ( #24, #109, ( #55 ) ) ;
#67 = PRODUCT_DEFINITION_SHAPE ( 'NONE', 'NONE',  #173 ) ;
#68 = EDGE_CURVE ( 'NONE', #96, #139, #71, .T. ) ;
#69 = PERSON_AND_ORGANIZATION ( #169, #157 ) ;
#70 = VECTOR ( 'NONE', #215, 1000.000000000000000 ) ;
#71 = LINE ( 'NONE', #85, #115 ) ;
#72 = SECURITY_CLASSIFICATION_LEVEL ( 'unclassified' ) ;
#73 = EDGE_CURVE ( 'NONE', #221, #134, #229, .T. ) ;
#74 = APPLICATION_CONTEXT ( 'configuration controlled 3d designs of mechanical parts and assemblies' ) ;
#75 = LINE ( 'NONE', #107, #143 ) ;
#76 = CC_DESIGN_APPROVAL ( #90, ( #55 ) ) ;
#77 = DESIGN_CONTEXT ( 'detailed design', #78, 'design' ) ;
#78 = APPLICATION_CONTEXT ( 'configuration controlled 3d designs of mechanical parts and assemblies' ) ;
#79 = ADVANCED_FACE ( 'NONE', ( #121 ), #161, .F. ) ;
#80 = CC_DESIGN_DATE_AND_TIME_ASSIGNMENT ( #36, #171, ( #55 ) ) ;
#81 = LOCAL_TIME ( 13, 45, 29.00000000000000000, #54 ) ;
#82 = EDGE_CURVE ( 'NONE', #225, #27, #129, .T. ) ;
#83 = VECTOR ( 'NONE', #37, 1000.000000000000000 ) ;
#84 = EDGE_CURVE ( 'NONE', #225, #19, #174, .T. ) ;
#85 = CARTESIAN_POINT ( 'NONE',  ( 0.0000000000000000000, 12.49999999999999600, 0.0000000000000000000 ) ) ;
#86 = DIRECTION ( 'NONE',  ( -0.0000000000000000000, -0.0000000000000000000, -1.000000000000000000 ) ) ;
#87 = PLANE ( 'NONE',  #136 ) ;
#88 = DATE_AND_TIME ( #65, #226 ) ;
#89 = DIRECTION ( 'NONE',  ( 1.000000000000000000, 0.0000000000000000000, 0.0000000000000000000 ) ) ;
#90 = APPROVAL ( #17, 'UNSPECIFIED' ) ;
#91 = CARTESIAN_POINT ( 'NONE',  ( 0.0000000000000000000, 0.0000000000000000000, 3.000000000000000000 ) ) ;
#92 = MANIFOLD_SOLID_BREP ( 'Extrude1', #170 ) ;
#93 = EDGE_CURVE ( 'NONE', #139, #134, #204, .T. ) ;
#94 = EDGE_CURVE ( 'NONE', #27, #96, #153, .T. ) ;
#95 = ORIENTED_EDGE ( 'NONE', *, *, #32, .F. ) ;
#96 = VERTEX_POINT ( 'NONE', #180 ) ;
#97 = DIRECTION ( 'NONE',  ( -1.000000000000000000, 0.0000000000000000000, -0.0000000000000000000 ) ) ;
#98 = ORIENTED_EDGE ( 'NONE', *, *, #60, .F. ) ;
#99 = ORIENTED_EDGE ( 'NONE', *, *, #110, .F. ) ;
#100 = LOCAL_TIME ( 13, 45, 29.00000000000000000, #146 ) ;
#101 = APPLICATION_PROTOCOL_DEFINITION ( 'international standard', 'config_control_design', 1994, #78 ) ;
#102 = FACE_OUTER_BOUND ( 'NONE', #150, .T. ) ;
#103 = DATE_AND_TIME ( #210, #81 ) ;
#104 = PLANE ( 'NONE',  #160 ) ;
#105 = CARTESIAN_POINT ( 'NONE',  ( 0.0000000000000000000, 0.0000000000000000000, 0.0000000000000000000 ) ) ;
#106 = CC_DESIGN_SECURITY_CLASSIFICATION ( #55, ( #195 ) ) ;
#107 = CARTESIAN_POINT ( 'NONE',  ( 0.0000000000000000000, 0.0000000000000000000, 3.000000000000000000 ) ) ;
#108 = APPROVAL_DATE_TIME ( #179, #148 ) ;
#109 = PERSON_AND_ORGANIZATION_ROLE ( 'classification_officer' ) ;
#110 = EDGE_CURVE ( 'NONE', #181, #221, #75, .T. ) ;
#111 = PLANE ( 'NONE',  #206 ) ;
#112 = PERSON_AND_ORGANIZATION ( #169, #157 ) ;
#113 = VECTOR ( 'NONE', #86, 1000.000000000000000 ) ;
#114 = APPROVAL_ROLE ( '' ) ;
#115 = VECTOR ( 'NONE', #203, 1000.000000000000000 ) ;
#116 = ORIENTED_EDGE ( 'NONE', *, *, #110, .T. ) ;
#117 = CARTESIAN_POINT ( 'NONE',  ( 0.0000000000000000000, 0.0000000000000000000, 0.0000000000000000000 ) ) ;
#118 = DIRECTION ( 'NONE',  ( 0.0000000000000000000, 0.0000000000000000000, 1.000000000000000000 ) ) ;
#119 = CC_DESIGN_PERSON_AND_ORGANIZATION_ASSIGNMENT ( #14, #11, ( #173 ) ) ;
#120 =( NAMED_UNIT ( * ) SI_UNIT ( $, .STERADIAN. ) SOLID_ANGLE_UNIT ( ) );
#121 = FACE_OUTER_BOUND ( 'NONE', #158, .T. ) ;
#122 = CARTESIAN_POINT ( 'NONE',  ( 17.50000000000000000, 0.0000000000000000000, 0.0000000000000000000 ) ) ;
#123 = APPROVAL_PERSON_ORGANIZATION ( #234, #90, #6 ) ;
#124 = CALENDAR_DATE ( 2017, 1, 3 ) ;
#125 = DIRECTION ( 'NONE',  ( 1.000000000000000000, 0.0000000000000000000, 0.0000000000000000000 ) ) ;
#126 =( GEOMETRIC_REPRESENTATION_CONTEXT ( 3 ) GLOBAL_UNCERTAINTY_ASSIGNED_CONTEXT ( ( #39 ) ) GLOBAL_UNIT_ASSIGNED_CONTEXT ( ( #194, #49, #120 ) ) REPRESENTATION_CONTEXT ( 'NONE', 'WORKASPACE' ) );
#127 = DIRECTION ( 'NONE',  ( 1.982541115402065100E-016, -1.000000000000000000, 0.0000000000000000000 ) ) ;
#128 = PERSON_AND_ORGANIZATION ( #169, #157 ) ;
#129 = LINE ( 'NONE', #176, #70 ) ;
#130 = CARTESIAN_POINT ( 'NONE',  ( 0.0000000000000000000, 12.49999999999999600, 3.000000000000000000 ) ) ;
#131 = ORIENTED_EDGE ( 'NONE', *, *, #84, .T. ) ;
#132 = LINE ( 'NONE', #58, #185 ) ;
#133 = ADVANCED_BREP_SHAPE_REPRESENTATION ( 'Web Model 47022_48390', ( #92, #224 ), #126 ) ;
#134 = VERTEX_POINT ( 'NONE', #105 ) ;
#135 = CC_DESIGN_APPROVAL ( #148, ( #173 ) ) ;
#136 = AXIS2_PLACEMENT_3D ( 'NONE', #26, #127, #237 ) ;
#137 = DIRECTION ( 'NONE',  ( -0.0000000000000000000, -1.000000000000000000, -0.0000000000000000000 ) ) ;
#138 = ORIENTED_EDGE ( 'NONE', *, *, #82, .T. ) ;
#139 = VERTEX_POINT ( 'NONE', #216 ) ;
#140 = ORIENTED_EDGE ( 'NONE', *, *, #93, .T. ) ;
#141 = FACE_OUTER_BOUND ( 'NONE', #20, .T. ) ;
#142 = CARTESIAN_POINT ( 'NONE',  ( 0.0000000000000000000, 0.0000000000000000000, 3.000000000000000000 ) ) ;
#143 = VECTOR ( 'NONE', #137, 1000.000000000000000 ) ;
#144 = APPROVAL_STATUS ( 'not_yet_approved' ) ;
#145 = CARTESIAN_POINT ( 'NONE',  ( 0.0000000000000000000, 0.0000000000000000000, 0.0000000000000000000 ) ) ;
#146 = COORDINATED_UNIVERSAL_TIME_OFFSET ( 5, 0, .BEHIND. ) ;
#147 = CARTESIAN_POINT ( 'NONE',  ( 0.0000000000000000000, 0.0000000000000000000, 0.0000000000000000000 ) ) ;
#148 = APPROVAL ( #144, 'UNSPECIFIED' ) ;
#149 = DIRECTION ( 'NONE',  ( 0.0000000000000000000, 0.0000000000000000000, -1.000000000000000000 ) ) ;
#150 = EDGE_LOOP ( 'NONE', ( #228, #187, #167, #10 ) ) ;
#151 = DIRECTION ( 'NONE',  ( -0.0000000000000000000, -1.000000000000000000, -0.0000000000000000000 ) ) ;
#152 = VECTOR ( 'NONE', #125, 1000.000000000000000 ) ;
#153 = LINE ( 'NONE', #1, #2 ) ;
#154 = EDGE_CURVE ( 'NONE', #19, #181, #132, .T. ) ;
#155 = PERSON_AND_ORGANIZATION_ROLE ( 'creator' ) ;
#156 = LINE ( 'NONE', #91, #83 ) ;
#157 = ORGANIZATION ( 'UNSPECIFIED', 'UNSPECIFIED', '' ) ;
#158 = EDGE_LOOP ( 'NONE', ( #51, #95, #230, #138 ) ) ;
#159 = CARTESIAN_POINT ( 'NONE',  ( 17.50000000000000000, 0.0000000000000000000, 3.000000000000000000 ) ) ;
#160 = AXIS2_PLACEMENT_3D ( 'NONE', #147, #166, #97 ) ;
#161 = PLANE ( 'NONE',  #235 ) ;
#162 = ADVANCED_FACE ( 'NONE', ( #197 ), #192, .F. ) ;
#163 = ORIENTED_EDGE ( 'NONE', *, *, #68, .T. ) ;
#164 = LINE ( 'NONE', #130, #8 ) ;
#165 = APPLICATION_PROTOCOL_DEFINITION ( 'international standard', 'config_control_design', 1994, #74 ) ;
#166 = DIRECTION ( 'NONE',  ( 0.0000000000000000000, 0.0000000000000000000, -1.000000000000000000 ) ) ;
#167 = ORIENTED_EDGE ( 'NONE', *, *, #57, .F. ) ;
#168 = APPROVAL ( #205, 'UNSPECIFIED' ) ;
#169 = PERSON ( 'UNSPECIFIED', 'UNSPECIFIED', 'UNSPECIFIED', ('UNSPECIFIED'), ('UNSPECIFIED'), ('UNSPECIFIED') ) ;
#170 = CLOSED_SHELL ( 'NONE', ( #62, #22, #79, #236, #162, #186 ) ) ;
#171 = DATE_TIME_ROLE ( 'classification_date' ) ;
#172 = ORIENTED_EDGE ( 'NONE', *, *, #45, .F. ) ;
#173 = PRODUCT_DEFINITION ( 'UNKNOWN', '', #195, #77 ) ;
#174 = LINE ( 'NONE', #159, #214 ) ;
#175 = AXIS2_PLACEMENT_3D ( 'NONE', #18, #149, #201 ) ;
#176 = CARTESIAN_POINT ( 'NONE',  ( 17.50000000000000000, 0.0000000000000000000, 3.000000000000000000 ) ) ;
#177 = AXIS2_PLACEMENT_3D ( 'NONE', #211, #231, #188 ) ;
#178 = EDGE_LOOP ( 'NONE', ( #38, #209, #191, #172 ) ) ;
#179 = DATE_AND_TIME ( #124, #100 ) ;
#180 = CARTESIAN_POINT ( 'NONE',  ( 17.50000000000000000, 12.50000000000000000, 0.0000000000000000000 ) ) ;
#181 = VERTEX_POINT ( 'NONE', #33 ) ;
#182 = DIRECTION ( 'NONE',  ( 0.0000000000000000000, 1.000000000000000000, 0.0000000000000000000 ) ) ;
#183 = CC_DESIGN_DATE_AND_TIME_ASSIGNMENT ( #88, #223, ( #173 ) ) ;
#184 = DIRECTION ( 'NONE',  ( -1.000000000000000000, 0.0000000000000000000, 0.0000000000000000000 ) ) ;
#185 = VECTOR ( 'NONE', #220, 1000.000000000000000 ) ;
#186 = ADVANCED_FACE ( 'NONE', ( #12 ), #104, .T. ) ;
#187 = ORIENTED_EDGE ( 'NONE', *, *, #82, .F. ) ;
#188 = DIRECTION ( 'NONE',  ( 0.0000000000000000000, -0.0000000000000000000, 1.000000000000000000 ) ) ;
#189 = ORIENTED_EDGE ( 'NONE', *, *, #154, .T. ) ;
#190 = VECTOR ( 'NONE', #232, 1000.000000000000000 ) ;
#191 = ORIENTED_EDGE ( 'NONE', *, *, #94, .F. ) ;
#192 = PLANE ( 'NONE',  #175 ) ;
#193 = EDGE_LOOP ( 'NONE', ( #163, #98, #64, #50 ) ) ;
#194 =( LENGTH_UNIT ( ) NAMED_UNIT ( * ) SI_UNIT ( .MILLI., .METRE. ) );
#195 = PRODUCT_DEFINITION_FORMATION_WITH_SPECIFIED_SOURCE ( 'ANY', '', #227, .NOT_KNOWN. ) ;
#196 = CARTESIAN_POINT ( 'NONE',  ( 17.50000000000000000, 12.50000000000000000, 3.000000000000000000 ) ) ;
#197 = FACE_OUTER_BOUND ( 'NONE', #213, .T. ) ;
#198 = COORDINATED_UNIVERSAL_TIME_OFFSET ( 5, 0, .BEHIND. ) ;
#199 = APPROVAL_DATE_TIME ( #35, #168 ) ;
#200 = CARTESIAN_POINT ( 'NONE',  ( 17.50000000000000000, 0.0000000000000000000, 3.000000000000000000 ) ) ;
#201 = DIRECTION ( 'NONE',  ( -1.000000000000000000, 0.0000000000000000000, -0.0000000000000000000 ) ) ;
#202 = DIRECTION ( 'NONE',  ( 0.0000000000000000000, 1.000000000000000000, 0.0000000000000000000 ) ) ;
#203 = DIRECTION ( 'NONE',  ( -1.000000000000000000, -1.982541115402065100E-016, -0.0000000000000000000 ) ) ;
#204 = LINE ( 'NONE', #208, #5 ) ;
#205 = APPROVAL_STATUS ( 'not_yet_approved' ) ;
#206 = AXIS2_PLACEMENT_3D ( 'NONE', #53, #47, #61 ) ;
#207 = PLANE ( 'NONE',  #177 ) ;
#208 = CARTESIAN_POINT ( 'NONE',  ( 0.0000000000000000000, 0.0000000000000000000, 0.0000000000000000000 ) ) ;
#209 = ORIENTED_EDGE ( 'NONE', *, *, #68, .F. ) ;
#210 = CALENDAR_DATE ( 2017, 1, 3 ) ;
#211 = CARTESIAN_POINT ( 'NONE',  ( 0.0000000000000000000, 0.0000000000000000000, 3.000000000000000000 ) ) ;
#212 = APPROVAL_PERSON_ORGANIZATION ( #69, #168, #114 ) ;
#213 = EDGE_LOOP ( 'NONE', ( #116, #48, #131, #189 ) ) ;
#214 = VECTOR ( 'NONE', #182, 1000.000000000000000 ) ;
#215 = DIRECTION ( 'NONE',  ( -0.0000000000000000000, -0.0000000000000000000, -1.000000000000000000 ) ) ;
#216 = CARTESIAN_POINT ( 'NONE',  ( 0.0000000000000000000, 12.49999999999999600, 0.0000000000000000000 ) ) ;
#217 = PERSON_AND_ORGANIZATION_ROLE ( 'design_owner' ) ;
#218 = CC_DESIGN_PERSON_AND_ORGANIZATION_ASSIGNMENT ( #128, #217, ( #227 ) ) ;
#219 = APPROVAL_ROLE ( '' ) ;
#220 = DIRECTION ( 'NONE',  ( -1.000000000000000000, -1.982541115402065100E-016, -0.0000000000000000000 ) ) ;
#221 = VERTEX_POINT ( 'NONE', #142 ) ;
#222 = FACE_OUTER_BOUND ( 'NONE', #193, .T. ) ;
#223 = DATE_TIME_ROLE ( 'creation_date' ) ;
#224 = AXIS2_PLACEMENT_3D ( 'NONE', #145, #9, #89 ) ;
#225 = VERTEX_POINT ( 'NONE', #200 ) ;
#226 = LOCAL_TIME ( 13, 45, 29.00000000000000000, #198 ) ;
#227 = PRODUCT ( 'Web Model 47022_48390', 'Web Model 47022_48390', '', ( #21 ) ) ;
#228 = ORIENTED_EDGE ( 'NONE', *, *, #45, .T. ) ;
#229 = LINE ( 'NONE', #15, #190 ) ;
#230 = ORIENTED_EDGE ( 'NONE', *, *, #84, .F. ) ;
#231 = DIRECTION ( 'NONE',  ( 0.0000000000000000000, 1.000000000000000000, 0.0000000000000000000 ) ) ;
#232 = DIRECTION ( 'NONE',  ( -0.0000000000000000000, -0.0000000000000000000, -1.000000000000000000 ) ) ;
#233 = CARTESIAN_POINT ( 'NONE',  ( 17.50000000000000000, 12.50000000000000000, 3.000000000000000000 ) ) ;
#234 = PERSON_AND_ORGANIZATION ( #169, #157 ) ;
#235 = AXIS2_PLACEMENT_3D ( 'NONE', #52, #184, #118 ) ;
#236 = ADVANCED_FACE ( 'NONE', ( #222 ), #87, .F. ) ;
#237 = DIRECTION ( 'NONE',  ( 1.000000000000000000, 1.982541115402065100E-016, 0.0000000000000000000 ) ) ;
ENDSEC;
END-ISO-10303-21;
