ISO-10303-21;
HEADER;
FILE_DESCRIPTION (( 'STEP AP203' ),
    '1' );
FILE_NAME ('4275-E0W.STEP',
    '2015-05-29T14:20:02',
    ( 'admin' ),
    ( '' ),
    'SwSTEP 2.0',
    'SolidWorks 2014',
    '' );
FILE_SCHEMA (( 'CONFIG_CONTROL_DESIGN' ));
ENDSEC;

DATA;
#1 = CALENDAR_DATE ( 2015, 29, 5 ) ;
#2 = FACE_OUTER_BOUND ( 'NONE', #148, .T. ) ;
#3 = CARTESIAN_POINT ( 'NONE',  ( 0.1999999999999987900, 0.0000000000000000000, 0.0000000000000000000 ) ) ;
#4 = PERSON_AND_ORGANIZATION ( #6, #202 ) ;
#5 = DIRECTION ( 'NONE',  ( -1.000000000000000000, -0.0000000000000000000, -0.0000000000000000000 ) ) ;
#6 = PERSON ( 'UNSPECIFIED', 'UNSPECIFIED', 'UNSPECIFIED', ('UNSPECIFIED'), ('UNSPECIFIED'), ('UNSPECIFIED') ) ;
#7 = CARTESIAN_POINT ( 'NONE',  ( -1.350000000000000100, 0.0000000000000000000, -6.100000000000003200 ) ) ;
#8 = EDGE_LOOP ( 'NONE', ( #170, #93, #124, #25 ) ) ;
#9 = DIRECTION ( 'NONE',  ( 1.000000000000000000, 0.0000000000000000000, 0.0000000000000000000 ) ) ;
#10 = DIRECTION ( 'NONE',  ( 0.0000000000000000000, 0.0000000000000000000, 1.000000000000000000 ) ) ;
#11 = EDGE_CURVE ( 'NONE', #169, #258, #269, .T. ) ;
#12 = ORIENTED_EDGE ( 'NONE', *, *, #238, .T. ) ;
#13 = DIRECTION ( 'NONE',  ( -1.000000000000000000, -0.0000000000000000000, -0.0000000000000000000 ) ) ;
#14 = COORDINATED_UNIVERSAL_TIME_OFFSET ( 5, 0, .BEHIND. ) ;
#15 = DIRECTION ( 'NONE',  ( 0.0000000000000000000, 0.0000000000000000000, 1.000000000000000000 ) ) ;
#16 = PERSON_AND_ORGANIZATION ( #6, #202 ) ;
#17 = LINE ( 'NONE', #28, #298 ) ;
#18 = DIRECTION ( 'NONE',  ( 0.0000000000000000000, 0.0000000000000000000, -1.000000000000000000 ) ) ;
#19 = VERTEX_POINT ( 'NONE', #130 ) ;
#20 = FACE_OUTER_BOUND ( 'NONE', #8, .T. ) ;
#21 = CARTESIAN_POINT ( 'NONE',  ( -1.350000000000000100, 0.0000000000000000000, -6.100000000000003200 ) ) ;
#22 = LOCAL_TIME ( 10, 20, 2.000000000000000000, #66 ) ;
#23 = APPROVAL_PERSON_ORGANIZATION ( #16, #236, #76 ) ;
#24 = PERSON_AND_ORGANIZATION_ROLE ( 'creator' ) ;
#25 = ORIENTED_EDGE ( 'NONE', *, *, #39, .F. ) ;
#26 = DIRECTION ( 'NONE',  ( 0.0000000000000000000, 0.0000000000000000000, -1.000000000000000000 ) ) ;
#27 = PERSON_AND_ORGANIZATION_ROLE ( 'design_owner' ) ;
#28 = CARTESIAN_POINT ( 'NONE',  ( -1.350000000000000100, 7.470345474798858200E-016, 6.100000000000003200 ) ) ;
#29 = ORIENTED_EDGE ( 'NONE', *, *, #41, .T. ) ;
#30 = PERSON_AND_ORGANIZATION ( #6, #202 ) ;
#31 = ADVANCED_FACE ( 'NONE', ( #89 ), #174, .T. ) ;
#32 = DIRECTION ( 'NONE',  ( 0.0000000000000000000, 0.0000000000000000000, 1.000000000000000000 ) ) ;
#33 = VERTEX_POINT ( 'NONE', #21 ) ;
#34 = CARTESIAN_POINT ( 'NONE',  ( 0.1999999999999987900, 0.0000000000000000000, 0.0000000000000000000 ) ) ;
#35 = CC_DESIGN_PERSON_AND_ORGANIZATION_ASSIGNMENT ( #160, #24, ( #84 ) ) ;
#36 = EDGE_CURVE ( 'NONE', #281, #104, #287, .T. ) ;
#37 = PERSON_AND_ORGANIZATION ( #6, #202 ) ;
#38 = CLOSED_SHELL ( 'NONE', ( #168, #218, #31, #92, #291, #295, #262, #256, #215 ) ) ;
#39 = EDGE_CURVE ( 'NONE', #19, #258, #263, .T. ) ;
#40 = APPROVAL_PERSON_ORGANIZATION ( #37, #175, #194 ) ;
#41 = EDGE_CURVE ( 'NONE', #141, #33, #44, .T. ) ;
#42 = CARTESIAN_POINT ( 'NONE',  ( 0.1999999999999987900, 7.776507174585690200E-016, -6.349999999999997900 ) ) ;
#43 = DIRECTION ( 'NONE',  ( 0.7071067811865512400, 8.659560562354888500E-017, 0.7071067811865439100 ) ) ;
#44 = CIRCLE ( 'NONE', #192, 6.100000000000003200 ) ;
#45 = PLANE ( 'NONE',  #223 ) ;
#46 = CALENDAR_DATE ( 2015, 29, 5 ) ;
#47 = VECTOR ( 'NONE', #143, 1000.000000000000000 ) ;
#48 = DIRECTION ( 'NONE',  ( 0.0000000000000000000, 0.0000000000000000000, -1.000000000000000000 ) ) ;
#49 = AXIS2_PLACEMENT_3D ( 'NONE', #203, #98, #26 ) ;
#50 = CALENDAR_DATE ( 2015, 29, 5 ) ;
#51 = CARTESIAN_POINT ( 'NONE',  ( -1.350000000000000100, 7.776507174585690200E-016, -6.349999999999997900 ) ) ;
#52 = APPLICATION_PROTOCOL_DEFINITION ( 'international standard', 'config_control_design', 1994, #59 ) ;
#53 = DIRECTION ( 'NONE',  ( 0.0000000000000000000, 0.0000000000000000000, 1.000000000000000000 ) ) ;
#54 = DATE_AND_TIME ( #46, #22 ) ;
#55 = ORIENTED_EDGE ( 'NONE', *, *, #167, .F. ) ;
#56 = CONICAL_SURFACE ( 'NONE', #176, 6.349999999999997900, 0.6450615056637777300 ) ;
#57 = EDGE_LOOP ( 'NONE', ( #80, #193, #233, #147 ) ) ;
#58 = AXIS2_PLACEMENT_3D ( 'NONE', #135, #182, #95 ) ;
#59 = APPLICATION_CONTEXT ( 'configuration controlled 3d designs of mechanical parts and assemblies' ) ;
#60 = EDGE_LOOP ( 'NONE', ( #55, #251, #99, #114 ) ) ;
#61 = PERSON_AND_ORGANIZATION_ROLE ( 'creator' ) ;
#62 = ORIENTED_EDGE ( 'NONE', *, *, #296, .T. ) ;
#63 = ORIENTED_EDGE ( 'NONE', *, *, #211, .F. ) ;
#64 = AXIS2_PLACEMENT_3D ( 'NONE', #3, #13, #10 ) ;
#65 = DIRECTION ( 'NONE',  ( -1.000000000000000000, -0.0000000000000000000, -0.0000000000000000000 ) ) ;
#66 = COORDINATED_UNIVERSAL_TIME_OFFSET ( 5, 0, .BEHIND. ) ;
#67 = DIRECTION ( 'NONE',  ( -1.000000000000000000, -0.0000000000000000000, -0.0000000000000000000 ) ) ;
#68 = PERSON_AND_ORGANIZATION_ROLE ( 'classification_officer' ) ;
#69 = CIRCLE ( 'NONE', #231, 6.349999999999997900 ) ;
#70 = DIRECTION ( 'NONE',  ( 0.0000000000000000000, 0.0000000000000000000, -1.000000000000000000 ) ) ;
#71 = DIRECTION ( 'NONE',  ( 0.0000000000000000000, -1.224646799147353200E-016, 1.000000000000000000 ) ) ;
#72 = DIRECTION ( 'NONE',  ( -0.7990627883224755700, 7.363159323493836400E-017, -0.6012475865384497900 ) ) ;
#73 = VECTOR ( 'NONE', #72, 1000.000000000000100 ) ;
#74 = DIRECTION ( 'NONE',  ( -0.0000000000000000000, 1.000000000000000000, 1.224646799147353200E-016 ) ) ;
#75 = FACE_OUTER_BOUND ( 'NONE', #214, .T. ) ;
#76 = APPROVAL_ROLE ( '' ) ;
#77 = SHAPE_DEFINITION_REPRESENTATION ( #179, #275 ) ;
#78 = CARTESIAN_POINT ( 'NONE',  ( -1.100000000000002500, 0.0000000000000000000, 0.0000000000000000000 ) ) ;
#79 = DIRECTION ( 'NONE',  ( 1.000000000000000000, 0.0000000000000000000, 0.0000000000000000000 ) ) ;
#80 = ORIENTED_EDGE ( 'NONE', *, *, #36, .F. ) ;
#81 = EDGE_LOOP ( 'NONE', ( #222, #208, #120 ) ) ;
#82 = APPROVAL_STATUS ( 'not_yet_approved' ) ;
#83 = EDGE_CURVE ( 'NONE', #300, #281, #228, .T. ) ;
#84 = PRODUCT_DEFINITION_FORMATION_WITH_SPECIFIED_SOURCE ( 'ANY', '', #234, .NOT_KNOWN. ) ;
#85 = AXIS2_PLACEMENT_3D ( 'NONE', #267, #9, #150 ) ;
#86 = MECHANICAL_CONTEXT ( 'NONE', #292, 'mechanical' ) ;
#87 = PERSON_AND_ORGANIZATION ( #6, #202 ) ;
#88 = TOROIDAL_SURFACE ( 'NONE', #58, -0.02106162535796003000, 22.99999999999999600 ) ;
#89 = FACE_OUTER_BOUND ( 'NONE', #81, .T. ) ;
#90 = AXIS2_PLACEMENT_3D ( 'NONE', #34, #67, #244 ) ;
#91 = DIRECTION ( 'NONE',  ( 0.0000000000000000000, 0.0000000000000000000, -1.000000000000000000 ) ) ;
#92 = ADVANCED_FACE ( 'NONE', ( #20 ), #213, .T. ) ;
#93 = ORIENTED_EDGE ( 'NONE', *, *, #274, .T. ) ;
#94 = ORIENTED_EDGE ( 'NONE', *, *, #11, .F. ) ;
#95 = DIRECTION ( 'NONE',  ( 0.0000000000000000000, 0.0000000000000000000, 1.000000000000000000 ) ) ;
#96 = CIRCLE ( 'NONE', #131, 6.349999999999997900 ) ;
#97 = DIRECTION ( 'NONE',  ( -1.000000000000000000, -0.0000000000000000000, -0.0000000000000000000 ) ) ;
#98 = DIRECTION ( 'NONE',  ( 0.0000000000000000000, -1.000000000000000000, 0.0000000000000000000 ) ) ;
#99 = ORIENTED_EDGE ( 'NONE', *, *, #284, .F. ) ;
#100 = ORIENTED_EDGE ( 'NONE', *, *, #211, .T. ) ;
#101 = DIRECTION ( 'NONE',  ( 0.0000000000000000000, 0.0000000000000000000, -1.000000000000000000 ) ) ;
#102 = CARTESIAN_POINT ( 'NONE',  ( -1.350000000000000100, 0.0000000000000000000, 6.349999999999997900 ) ) ;
#103 = ORIENTED_EDGE ( 'NONE', *, *, #274, .F. ) ;
#104 = VERTEX_POINT ( 'NONE', #42 ) ;
#105 = SECURITY_CLASSIFICATION ( '', '', #191 ) ;
#106 = DIRECTION ( 'NONE',  ( -0.7990627883224755700, 0.0000000000000000000, 0.6012475865384497900 ) ) ;
#107 = APPROVAL_DATE_TIME ( #146, #175 ) ;
#108 = LOCAL_TIME ( 10, 20, 2.000000000000000000, #14 ) ;
#109 = ORIENTED_EDGE ( 'NONE', *, *, #296, .F. ) ;
#110 = CC_DESIGN_APPROVAL ( #236, ( #297 ) ) ;
#111 = ORIENTED_EDGE ( 'NONE', *, *, #83, .T. ) ;
#112 = AXIS2_PLACEMENT_3D ( 'NONE', #162, #276, #70 ) ;
#113 = CARTESIAN_POINT ( 'NONE',  ( -1.350000000000000100, 0.0000000000000000000, 0.0000000000000000000 ) ) ;
#114 = ORIENTED_EDGE ( 'NONE', *, *, #121, .F. ) ;
#115 = CC_DESIGN_APPROVAL ( #261, ( #105 ) ) ;
#116 = CONICAL_SURFACE ( 'NONE', #90, 6.349999999999997900, 0.6450615056637777300 ) ;
#117 = FACE_OUTER_BOUND ( 'NONE', #57, .T. ) ;
#118 = ORIENTED_EDGE ( 'NONE', *, *, #41, .F. ) ;
#119 = CARTESIAN_POINT ( 'NONE',  ( 0.1999999999999987900, 0.0000000000000000000, 6.349999999999997900 ) ) ;
#120 = ORIENTED_EDGE ( 'NONE', *, *, #167, .T. ) ;
#121 = EDGE_CURVE ( 'NONE', #300, #19, #294, .T. ) ;
#122 = CC_DESIGN_APPROVAL ( #175, ( #84 ) ) ;
#123 = PERSON_AND_ORGANIZATION ( #6, #202 ) ;
#124 = ORIENTED_EDGE ( 'NONE', *, *, #11, .T. ) ;
#125 = EDGE_LOOP ( 'NONE', ( #109, #63, #142, #164 ) ) ;
#126 = AXIS2_PLACEMENT_3D ( 'NONE', #290, #157, #177 ) ;
#127 = PRODUCT_RELATED_PRODUCT_CATEGORY ( 'detail', '', ( #234 ) ) ;
#128 = ORIENTED_EDGE ( 'NONE', *, *, #254, .T. ) ;
#129 = CARTESIAN_POINT ( 'NONE',  ( 0.1999999999999987900, 0.0000000000000000000, 0.0000000000000000000 ) ) ;
#130 = CARTESIAN_POINT ( 'NONE',  ( 0.1999999999999987900, 0.0000000000000000000, 6.349999999999997900 ) ) ;
#131 = AXIS2_PLACEMENT_3D ( 'NONE', #151, #97, #186 ) ;
#132 = VERTEX_POINT ( 'NONE', #225 ) ;
#133 = EDGE_LOOP ( 'NONE', ( #100, #29 ) ) ;
#134 = EDGE_CURVE ( 'NONE', #132, #281, #156, .T. ) ;
#135 = CARTESIAN_POINT ( 'NONE',  ( -21.64999035669226400, 0.0000000000000000000, 0.0000000000000000000 ) ) ;
#136 = DIRECTION ( 'NONE',  ( -1.000000000000000000, -0.0000000000000000000, -0.0000000000000000000 ) ) ;
#137 = CARTESIAN_POINT ( 'NONE',  ( -1.100000000000002500, 0.0000000000000000000, 6.349999999999997900 ) ) ;
#138 = ORIENTED_EDGE ( 'NONE', *, *, #221, .T. ) ;
#139 = CARTESIAN_POINT ( 'NONE',  ( 0.1999999999999987900, 7.776507174585690200E-016, -6.349999999999997900 ) ) ;
#140 = APPROVAL_PERSON_ORGANIZATION ( #87, #261, #268 ) ;
#141 = VERTEX_POINT ( 'NONE', #245 ) ;
#142 = ORIENTED_EDGE ( 'NONE', *, *, #301, .T. ) ;
#143 = DIRECTION ( 'NONE',  ( -1.000000000000000000, -0.0000000000000000000, -0.0000000000000000000 ) ) ;
#144 = DIRECTION ( 'NONE',  ( 0.0000000000000000000, 0.0000000000000000000, -1.000000000000000000 ) ) ;
#145 = CARTESIAN_POINT ( 'NONE',  ( -1.100000000000002500, 7.776507174585690200E-016, -6.349999999999997900 ) ) ;
#146 = DATE_AND_TIME ( #180, #108 ) ;
#147 = ORIENTED_EDGE ( 'NONE', *, *, #254, .F. ) ;
#148 = EDGE_LOOP ( 'NONE', ( #118, #62, #94, #178 ) ) ;
#149 = AXIS2_PLACEMENT_3D ( 'NONE', #264, #136, #32 ) ;
#150 = DIRECTION ( 'NONE',  ( 0.0000000000000000000, 0.0000000000000000000, 1.000000000000000000 ) ) ;
#151 = CARTESIAN_POINT ( 'NONE',  ( 0.1999999999999987900, 0.0000000000000000000, 0.0000000000000000000 ) ) ;
#152 = DIRECTION ( 'NONE',  ( 0.0000000000000000000, 0.0000000000000000000, 1.000000000000000000 ) ) ;
#153 = AXIS2_PLACEMENT_3D ( 'NONE', #270, #246, #240 ) ;
#154 = LOCAL_TIME ( 10, 20, 2.000000000000000000, #232 ) ;
#155 = DIRECTION ( 'NONE',  ( -1.000000000000000000, -0.0000000000000000000, -0.0000000000000000000 ) ) ;
#156 = CIRCLE ( 'NONE', #188, 22.99999999999999600 ) ;
#157 = DIRECTION ( 'NONE',  ( 1.000000000000000000, 0.0000000000000000000, 0.0000000000000000000 ) ) ;
#158 = DIRECTION ( 'NONE',  ( 0.0000000000000000000, 0.0000000000000000000, 1.000000000000000000 ) ) ;
#159 = CC_DESIGN_DATE_AND_TIME_ASSIGNMENT ( #293, #210, ( #297 ) ) ;
#160 = PERSON_AND_ORGANIZATION ( #6, #202 ) ;
#161 = DIRECTION ( 'NONE',  ( 1.000000000000000000, 0.0000000000000000000, 0.0000000000000000000 ) ) ;
#162 = CARTESIAN_POINT ( 'NONE',  ( -1.350000000000000100, 0.0000000000000000000, 0.0000000000000000000 ) ) ;
#163 = DATE_TIME_ROLE ( 'classification_date' ) ;
#164 = ORIENTED_EDGE ( 'NONE', *, *, #238, .F. ) ;
#165 = CC_DESIGN_DATE_AND_TIME_ASSIGNMENT ( #250, #163, ( #105 ) ) ;
#166 = FACE_OUTER_BOUND ( 'NONE', #125, .T. ) ;
#167 = EDGE_CURVE ( 'NONE', #281, #300, #189, .T. ) ;
#168 = ADVANCED_FACE ( 'NONE', ( #2 ), #260, .T. ) ;
#169 = VERTEX_POINT ( 'NONE', #145 ) ;
#170 = ORIENTED_EDGE ( 'NONE', *, *, #284, .T. ) ;
#171 =( GEOMETRIC_REPRESENTATION_CONTEXT ( 3 ) GLOBAL_UNCERTAINTY_ASSIGNED_CONTEXT ( ( #235 ) ) GLOBAL_UNIT_ASSIGNED_CONTEXT ( ( #280, #279, #278 ) ) REPRESENTATION_CONTEXT ( 'NONE', 'WORKASPACE' ) );
#172 = COORDINATED_UNIVERSAL_TIME_OFFSET ( 5, 0, .BEHIND. ) ;
#173 = LINE ( 'NONE', #7, #253 ) ;
#174 = TOROIDAL_SURFACE ( 'NONE', #207, -0.02106162535796003000, 22.99999999999999600 ) ;
#175 = APPROVAL ( #82, 'UNSPECIFIED' ) ;
#176 = AXIS2_PLACEMENT_3D ( 'NONE', #129, #65, #15 ) ;
#177 = DIRECTION ( 'NONE',  ( 0.0000000000000000000, 0.0000000000000000000, -1.000000000000000000 ) ) ;
#178 = ORIENTED_EDGE ( 'NONE', *, *, #301, .F. ) ;
#179 = PRODUCT_DEFINITION_SHAPE ( 'NONE', 'NONE',  #297 ) ;
#180 = CALENDAR_DATE ( 2015, 29, 5 ) ;
#181 = CC_DESIGN_SECURITY_CLASSIFICATION ( #105, ( #84 ) ) ;
#182 = DIRECTION ( 'NONE',  ( -1.000000000000000000, -0.0000000000000000000, -0.0000000000000000000 ) ) ;
#183 = PERSON_AND_ORGANIZATION_ROLE ( 'design_supplier' ) ;
#184 = ORIENTED_EDGE ( 'NONE', *, *, #134, .F. ) ;
#185 = CIRCLE ( 'NONE', #64, 6.349999999999997900 ) ;
#186 = DIRECTION ( 'NONE',  ( 0.0000000000000000000, 0.0000000000000000000, 1.000000000000000000 ) ) ;
#187 = APPROVAL_DATE_TIME ( #285, #261 ) ;
#188 = AXIS2_PLACEMENT_3D ( 'NONE', #190, #74, #71 ) ;
#189 = CIRCLE ( 'NONE', #153, 6.111122167655317100 ) ;
#190 = CARTESIAN_POINT ( 'NONE',  ( -21.64999035669226400, -2.579305207946647900E-018, 0.02106162535796003000 ) ) ;
#191 = SECURITY_CLASSIFICATION_LEVEL ( 'unclassified' ) ;
#192 = AXIS2_PLACEMENT_3D ( 'NONE', #265, #216, #144 ) ;
#193 = ORIENTED_EDGE ( 'NONE', *, *, #83, .F. ) ;
#194 = APPROVAL_ROLE ( '' ) ;
#195 = LOCAL_TIME ( 10, 20, 2.000000000000000000, #224 ) ;
#196 = VECTOR ( 'NONE', #5, 1000.000000000000000 ) ;
#197 = DIRECTION ( 'NONE',  ( 1.000000000000000000, 0.0000000000000000000, 0.0000000000000000000 ) ) ;
#198 = EDGE_LOOP ( 'NONE', ( #103, #128, #247, #12 ) ) ;
#199 = CC_DESIGN_PERSON_AND_ORGANIZATION_ASSIGNMENT ( #30, #27, ( #234 ) ) ;
#200 = APPROVAL_STATUS ( 'not_yet_approved' ) ;
#201 = AXIS2_PLACEMENT_3D ( 'NONE', #252, #212, #158 ) ;
#202 = ORGANIZATION ( 'UNSPECIFIED', 'UNSPECIFIED', '' ) ;
#203 = CARTESIAN_POINT ( 'NONE',  ( -21.64999035669226400, 0.0000000000000000000, -0.02106162535796003000 ) ) ;
#204 = LOCAL_TIME ( 10, 20, 2.000000000000000000, #172 ) ;
#205 = VECTOR ( 'NONE', #106, 1000.000000000000100 ) ;
#206 = CC_DESIGN_PERSON_AND_ORGANIZATION_ASSIGNMENT ( #249, #61, ( #297 ) ) ;
#207 = AXIS2_PLACEMENT_3D ( 'NONE', #273, #155, #152 ) ;
#208 = ORIENTED_EDGE ( 'NONE', *, *, #134, .T. ) ;
#209 = AXIS2_PLACEMENT_3D ( 'NONE', #282, #53, #197 ) ;
#210 = DATE_TIME_ROLE ( 'creation_date' ) ;
#211 = EDGE_CURVE ( 'NONE', #33, #141, #257, .T. ) ;
#212 = DIRECTION ( 'NONE',  ( -1.000000000000000000, -0.0000000000000000000, -0.0000000000000000000 ) ) ;
#213 = CYLINDRICAL_SURFACE ( 'NONE', #149, 6.349999999999997900 ) ;
#214 = EDGE_LOOP ( 'NONE', ( #184, #138, #111 ) ) ;
#215 = ADVANCED_FACE ( 'NONE', ( #166 ), #230, .T. ) ;
#216 = DIRECTION ( 'NONE',  ( -1.000000000000000000, -0.0000000000000000000, -0.0000000000000000000 ) ) ;
#217 = FACE_OUTER_BOUND ( 'NONE', #133, .T. ) ;
#218 = ADVANCED_FACE ( 'NONE', ( #239 ), #116, .T. ) ;
#219 = DIRECTION ( 'NONE',  ( 1.000000000000000000, 0.0000000000000000000, 0.0000000000000000000 ) ) ;
#220 = CIRCLE ( 'NONE', #49, 22.99999999999999600 ) ;
#221 = EDGE_CURVE ( 'NONE', #132, #300, #220, .T. ) ;
#222 = ORIENTED_EDGE ( 'NONE', *, *, #221, .F. ) ;
#223 = AXIS2_PLACEMENT_3D ( 'NONE', #243, #79, #91 ) ;
#224 = COORDINATED_UNIVERSAL_TIME_OFFSET ( 5, 0, .BEHIND. ) ;
#225 = CARTESIAN_POINT ( 'NONE',  ( 1.350000000000000100, 0.0000000000000000000, 0.0000000000000000000 ) ) ;
#226 = DIRECTION ( 'NONE',  ( 1.000000000000000000, 0.0000000000000000000, 0.0000000000000000000 ) ) ;
#227 = CC_DESIGN_PERSON_AND_ORGANIZATION_ASSIGNMENT ( #123, #68, ( #105 ) ) ;
#228 = CIRCLE ( 'NONE', #85, 6.111122167655317100 ) ;
#229 = CYLINDRICAL_SURFACE ( 'NONE', #201, 6.349999999999997900 ) ;
#230 = CONICAL_SURFACE ( 'NONE', #266, 6.100000000000003200, 0.7853981633974430600 ) ;
#231 = AXIS2_PLACEMENT_3D ( 'NONE', #299, #219, #101 ) ;
#232 = COORDINATED_UNIVERSAL_TIME_OFFSET ( 5, 0, .BEHIND. ) ;
#233 = ORIENTED_EDGE ( 'NONE', *, *, #121, .T. ) ;
#234 = PRODUCT ( '4275-E0W', '4275-E0W', '', ( #86 ) ) ;
#235 = UNCERTAINTY_MEASURE_WITH_UNIT (LENGTH_MEASURE( 1.000000000000000100E-005 ), #280, 'distance_accuracy_value', 'NONE');
#236 = APPROVAL ( #200, 'UNSPECIFIED' ) ;
#237 = AXIS2_PLACEMENT_3D ( 'NONE', #78, #226, #48 ) ;
#238 = EDGE_CURVE ( 'NONE', #258, #169, #69, .T. ) ;
#239 = FACE_OUTER_BOUND ( 'NONE', #60, .T. ) ;
#240 = DIRECTION ( 'NONE',  ( 0.0000000000000000000, 0.0000000000000000000, 1.000000000000000000 ) ) ;
#241 = MANIFOLD_SOLID_BREP ( '4275-001-1-solid1', #38 ) ;
#242 = FACE_OUTER_BOUND ( 'NONE', #198, .T. ) ;
#243 = CARTESIAN_POINT ( 'NONE',  ( -1.350000000000000100, 0.0000000000000000000, 0.0000000000000000000 ) ) ;
#244 = DIRECTION ( 'NONE',  ( 0.0000000000000000000, 0.0000000000000000000, 1.000000000000000000 ) ) ;
#245 = CARTESIAN_POINT ( 'NONE',  ( -1.350000000000000100, 7.623426324692274200E-016, 6.100000000000003200 ) ) ;
#246 = DIRECTION ( 'NONE',  ( 1.000000000000000000, 0.0000000000000000000, 0.0000000000000000000 ) ) ;
#247 = ORIENTED_EDGE ( 'NONE', *, *, #39, .T. ) ;
#248 = DESIGN_CONTEXT ( 'detailed design', #59, 'design' ) ;
#249 = PERSON_AND_ORGANIZATION ( #6, #202 ) ;
#250 = DATE_AND_TIME ( #1, #195 ) ;
#251 = ORIENTED_EDGE ( 'NONE', *, *, #36, .T. ) ;
#252 = CARTESIAN_POINT ( 'NONE',  ( -1.350000000000000100, 0.0000000000000000000, 0.0000000000000000000 ) ) ;
#253 = VECTOR ( 'NONE', #289, 999.9999999999998900 ) ;
#254 = EDGE_CURVE ( 'NONE', #104, #19, #96, .T. ) ;
#255 = CARTESIAN_POINT ( 'NONE',  ( 0.5174705247146388400, 0.0000000000000000000, 6.111122167655310000 ) ) ;
#256 = ADVANCED_FACE ( 'NONE', ( #117 ), #56, .T. ) ;
#257 = CIRCLE ( 'NONE', #112, 6.100000000000003200 ) ;
#258 = VERTEX_POINT ( 'NONE', #137 ) ;
#259 = APPROVAL_DATE_TIME ( #54, #236 ) ;
#260 = CONICAL_SURFACE ( 'NONE', #126, 6.100000000000003200, 0.7853981633974430600 ) ;
#261 = APPROVAL ( #288, 'UNSPECIFIED' ) ;
#262 = ADVANCED_FACE ( 'NONE', ( #75 ), #88, .T. ) ;
#263 = LINE ( 'NONE', #102, #47 ) ;
#264 = CARTESIAN_POINT ( 'NONE',  ( -1.350000000000000100, 0.0000000000000000000, 0.0000000000000000000 ) ) ;
#265 = CARTESIAN_POINT ( 'NONE',  ( -1.350000000000000100, 0.0000000000000000000, 0.0000000000000000000 ) ) ;
#266 = AXIS2_PLACEMENT_3D ( 'NONE', #113, #161, #18 ) ;
#267 = CARTESIAN_POINT ( 'NONE',  ( 0.5174705247146388400, 0.0000000000000000000, 0.0000000000000000000 ) ) ;
#268 = APPROVAL_ROLE ( '' ) ;
#269 = CIRCLE ( 'NONE', #237, 6.349999999999997900 ) ;
#270 = CARTESIAN_POINT ( 'NONE',  ( 0.5174705247146388400, 0.0000000000000000000, 0.0000000000000000000 ) ) ;
#271 = CARTESIAN_POINT ( 'NONE',  ( 0.5174705247146388400, 7.483966201817509000E-016, -6.111122167655310000 ) ) ;
#272 = LINE ( 'NONE', #51, #196 ) ;
#273 = CARTESIAN_POINT ( 'NONE',  ( -21.64999035669226400, 0.0000000000000000000, 0.0000000000000000000 ) ) ;
#274 = EDGE_CURVE ( 'NONE', #104, #169, #272, .T. ) ;
#275 = ADVANCED_BREP_SHAPE_REPRESENTATION ( '4275-E0W', ( #241, #209 ), #171 ) ;
#276 = DIRECTION ( 'NONE',  ( -1.000000000000000000, -0.0000000000000000000, -0.0000000000000000000 ) ) ;
#277 = CALENDAR_DATE ( 2015, 29, 5 ) ;
#278 =( NAMED_UNIT ( * ) SI_UNIT ( $, .STERADIAN. ) SOLID_ANGLE_UNIT ( ) );
#279 =( NAMED_UNIT ( * ) PLANE_ANGLE_UNIT ( ) SI_UNIT ( $, .RADIAN. ) );
#280 =( LENGTH_UNIT ( ) NAMED_UNIT ( * ) SI_UNIT ( .MILLI., .METRE. ) );
#281 = VERTEX_POINT ( 'NONE', #271 ) ;
#282 = CARTESIAN_POINT ( 'NONE',  ( 0.0000000000000000000, 0.0000000000000000000, 0.0000000000000000000 ) ) ;
#283 = CC_DESIGN_PERSON_AND_ORGANIZATION_ASSIGNMENT ( #4, #183, ( #84 ) ) ;
#284 = EDGE_CURVE ( 'NONE', #19, #104, #185, .T. ) ;
#285 = DATE_AND_TIME ( #50, #204 ) ;
#286 = APPLICATION_PROTOCOL_DEFINITION ( 'international standard', 'config_control_design', 1994, #292 ) ;
#287 = LINE ( 'NONE', #139, #73 ) ;
#288 = APPROVAL_STATUS ( 'not_yet_approved' ) ;
#289 = DIRECTION ( 'NONE',  ( 0.7071067811865512400, 0.0000000000000000000, -0.7071067811865439100 ) ) ;
#290 = CARTESIAN_POINT ( 'NONE',  ( -1.350000000000000100, 0.0000000000000000000, 0.0000000000000000000 ) ) ;
#291 = ADVANCED_FACE ( 'NONE', ( #217 ), #45, .F. ) ;
#292 = APPLICATION_CONTEXT ( 'configuration controlled 3d designs of mechanical parts and assemblies' ) ;
#293 = DATE_AND_TIME ( #277, #154 ) ;
#294 = LINE ( 'NONE', #119, #205 ) ;
#295 = ADVANCED_FACE ( 'NONE', ( #242 ), #229, .T. ) ;
#296 = EDGE_CURVE ( 'NONE', #141, #258, #17, .T. ) ;
#297 = PRODUCT_DEFINITION ( 'UNKNOWN', '', #84, #248 ) ;
#298 = VECTOR ( 'NONE', #43, 999.9999999999998900 ) ;
#299 = CARTESIAN_POINT ( 'NONE',  ( -1.100000000000002500, 0.0000000000000000000, 0.0000000000000000000 ) ) ;
#300 = VERTEX_POINT ( 'NONE', #255 ) ;
#301 = EDGE_CURVE ( 'NONE', #33, #169, #173, .T. ) ;
ENDSEC;
END-ISO-10303-21;
