ISO-10303-21;
HEADER;
FILE_DESCRIPTION (( 'STEP AP203' ),
    '1' );
FILE_NAME ('Web Model 66753.STEP',
    '2017-01-31T19:38:48',
    ( '' ),
    ( '' ),
    'SwSTEP 2.0',
    'SolidWorks 2016',
    '' );
FILE_SCHEMA (( 'CONFIG_CONTROL_DESIGN' ));
ENDSEC;

DATA;
#1 = PERSON_AND_ORGANIZATION_ROLE ( 'classification_officer' ) ;
#2 = DATE_AND_TIME ( #31, #194 ) ;
#3 = APPLICATION_PROTOCOL_DEFINITION ( 'international standard', 'config_control_design', 1994, #48 ) ;
#4 = CARTESIAN_POINT ( 'NONE',  ( 0.0000000000000000000, 0.8680555561152809600, 0.0000000000000000000 ) ) ;
#5 = CIRCLE ( 'NONE', #29, 6.250000000000000000 ) ;
#6 = CARTESIAN_POINT ( 'NONE',  ( 0.0000000000000000000, 0.0000000000000000000, 0.0000000000000000000 ) ) ;
#7 = CARTESIAN_POINT ( 'NONE',  ( -1.063061458278650000E-016, -0.8680555561152809600, 0.0000000000000000000 ) ) ;
#8 = CARTESIAN_POINT ( 'NONE',  ( -1.063061458278650000E-016, -0.8680555561152809600, 0.0000000000000000000 ) ) ;
#9 = CARTESIAN_POINT ( 'NONE',  ( -6.250000000000000000, -6.250000000000000000, -0.001732850333500670400 ) ) ;
#10 = CARTESIAN_POINT ( 'NONE',  ( -6.250000000000000000, 3.827021247335479800E-016, -0.001732850333500670000 ) ) ;
#11 = CARTESIAN_POINT ( 'NONE',  ( -5.034722790088319600, 3.082878574737949900E-016, -0.0003850784814597019800 ) ) ;
#12 = AXIS2_PLACEMENT_3D ( 'NONE', #57, #58, #27 ) ;
#13 = CARTESIAN_POINT ( 'NONE',  ( 0.0000000000000000000, 5.034722790088319600, -0.0003850784814597019800 ) ) ;
#14 = ORIENTED_EDGE ( 'NONE', *, *, #22, .T. ) ;
#15 = ORIENTED_EDGE ( 'NONE', *, *, #211, .T. ) ;
#16 = CARTESIAN_POINT ( 'NONE',  ( 2.951389070461460000, -5.421613767268659900E-016, 5.308339293205629700E-005 ) ) ;
#17 = CARTESIAN_POINT ( 'NONE',  ( 0.0000000000000000000, 6.250000000000000000, -0.001732850333500670000 ) ) ;
#18 = DATE_AND_TIME ( #190, #176 ) ;
#19 = ORIENTED_EDGE ( 'NONE', *, *, #192, .F. ) ;
#20 = DATE_TIME_ROLE ( 'creation_date' ) ;
#21 = DIRECTION ( 'NONE',  ( 1.000000000000000000, 0.0000000000000000000, 0.0000000000000000000 ) ) ;
#22 = EDGE_CURVE ( 'NONE', #80, #167, #64, .T. ) ;
#23 = PERSON_AND_ORGANIZATION_ROLE ( 'creator' ) ;
#24 = ADVANCED_FACE ( 'NONE', ( #87 ), #77, .T. ) ;
#25 = CARTESIAN_POINT ( 'NONE',  ( -6.250000000000000000, 1.653582669167220900E-015, -3.000000000000000000 ) ) ;
#26 = EDGE_LOOP ( 'NONE', ( #159, #120, #14, #200, #227 ) ) ;
#27 = DIRECTION ( 'NONE',  ( 1.000000000000000000, 0.0000000000000000000, 0.0000000000000000000 ) ) ;
#28 = PRODUCT_DEFINITION_FORMATION_WITH_SPECIFIED_SOURCE ( 'ANY', '', #215, .NOT_KNOWN. ) ;
#29 = AXIS2_PLACEMENT_3D ( 'NONE', #63, #214, #197 ) ;
#30 = CARTESIAN_POINT ( 'NONE',  ( 0.0000000000000000000, 0.0000000000000000000, 0.0000000000000000000 ) ) ;
#31 = CALENDAR_DATE ( 2017, 31, 1 ) ;
#32 = ORIENTED_EDGE ( 'NONE', *, *, #22, .F. ) ;
#33 = ORIENTED_EDGE ( 'NONE', *, *, #115, .T. ) ;
#34 = CARTESIAN_POINT ( 'NONE',  ( 2.951389070461460000, 2.951389070461460000, 5.308339293205629700E-005 ) ) ;
#35 = CARTESIAN_POINT ( 'NONE',  ( 6.250000000000000000, -1.148106374200640000E-015, -0.001732850333500670000 ) ) ;
#36 = DIRECTION ( 'NONE',  ( -1.000000000000000000, 0.0000000000000000000, -0.0000000000000000000 ) ) ;
#37 = APPROVAL_DATE_TIME ( #76, #289 ) ;
#38 = PLANE ( 'NONE',  #93 ) ;
#39 = CARTESIAN_POINT ( 'NONE',  ( 0.0000000000000000000, 6.250000000000000000, -0.001732850333500670000 ) ) ;
#40 = CARTESIAN_POINT ( 'NONE',  ( 0.0000000000000000000, 5.034722790088319600, -0.0003850784814597019800 ) ) ;
#41 = CARTESIAN_POINT ( 'NONE',  ( 6.250000000000000000, -6.250000000000000000, -0.001732850333500670400 ) ) ;
#42 = APPROVAL_DATE_TIME ( #18, #142 ) ;
#43 = CIRCLE ( 'NONE', #303, 6.250000000000000000 ) ;
#44 = CARTESIAN_POINT ( 'NONE',  ( -6.165757149475899900E-016, -5.034722790088319600, -0.0003850784814597019800 ) ) ;
#45 = CARTESIAN_POINT ( 'NONE',  ( -5.034722790088319600, -5.034722790088319600, -0.0003850784814597020900 ) ) ;
#46 = VERTEX_POINT ( 'NONE', #82 ) ;
#47 =( BOUNDED_SURFACE ( )  B_SPLINE_SURFACE ( 3, 2, ( 
 ( #243, #283, #241, #301, #152, #259, #94, #262, #73 ),
 ( #204, #146, #126, #179, #246, #202, #178, #180, #130 ),
 ( #177, #69, #100, #282, #99, #224, #16, #300, #260 ),
 ( #201, #244, #258, #45, #44, #71, #261, #242, #13 ),
 ( #148, #128, #127, #175, #225, #41, #149, #221, #96 ) ),
 .UNSPECIFIED., .F., .T., .F. ) 
 B_SPLINE_SURFACE_WITH_KNOTS ( ( 4, 1, 4 ),
 ( 3, 2, 2, 2, 3 ),
 ( 0.0000000000000000000, 0.4166666309254979900, 1.000000000000000000 ),
 ( 0.0000000000000000000, 90.00000000000000000, 180.0000000000000000, 270.0000000000000000, 360.0000000000000000 ),
 .UNSPECIFIED. ) 
 GEOMETRIC_REPRESENTATION_ITEM ( )  RATIONAL_B_SPLINE_SURFACE ( (
 ( 1.000000000000000000, 0.7071067811865480200, 1.000000000000000000, 0.7071067811865480200, 1.000000000000000000, 0.7071067811865480200, 1.000000000000000000, 0.7071067811865480200, 1.000000000000000000),
 ( 1.000000000000000000, 0.7071067811865480200, 1.000000000000000000, 0.7071067811865480200, 1.000000000000000000, 0.7071067811865480200, 1.000000000000000000, 0.7071067811865480200, 1.000000000000000000),
 ( 1.000000000000000000, 0.7071067811865480200, 1.000000000000000000, 0.7071067811865480200, 1.000000000000000000, 0.7071067811865480200, 1.000000000000000000, 0.7071067811865480200, 1.000000000000000000),
 ( 1.000000000000000000, 0.7071067811865480200, 1.000000000000000000, 0.7071067811865480200, 1.000000000000000000, 0.7071067811865480200, 1.000000000000000000, 0.7071067811865480200, 1.000000000000000000),
 ( 1.000000000000000000, 0.7071067811865480200, 1.000000000000000000, 0.7071067811865480200, 1.000000000000000000, 0.7071067811865480200, 1.000000000000000000, 0.7071067811865480200, 1.000000000000000000) ) ) 
 REPRESENTATION_ITEM ( '' )  SURFACE ( )  );
#48 = APPLICATION_CONTEXT ( 'configuration controlled 3d designs of mechanical parts and assemblies' ) ;
#49 = PERSON_AND_ORGANIZATION_ROLE ( 'design_owner' ) ;
#50 = CC_DESIGN_PERSON_AND_ORGANIZATION_ASSIGNMENT ( #248, #265, ( #28 ) ) ;
#51 =( NAMED_UNIT ( * ) PLANE_ANGLE_UNIT ( ) SI_UNIT ( $, .RADIAN. ) );
#52 =( GEOMETRIC_REPRESENTATION_CONTEXT ( 3 ) GLOBAL_UNCERTAINTY_ASSIGNED_CONTEXT ( ( #156 ) ) GLOBAL_UNIT_ASSIGNED_CONTEXT ( ( #285, #51, #134 ) ) REPRESENTATION_CONTEXT ( 'NONE', 'WORKASPACE' ) );
#53 = APPROVAL_STATUS ( 'not_yet_approved' ) ;
#54 = EDGE_CURVE ( 'NONE', #137, #267, #253, .T. ) ;
#55 = ADVANCED_FACE ( 'NONE', ( #250 ), #108, .T. ) ;
#56 = CIRCLE ( 'NONE', #297, 6.250000000000000000 ) ;
#57 = CARTESIAN_POINT ( 'NONE',  ( 0.0000000000000000000, 8.881784197001250400E-016, -3.000000000000000000 ) ) ;
#58 = DIRECTION ( 'NONE',  ( 3.469446951953610000E-020, 6.815335531097890200E-037, 1.000000000000000000 ) ) ;
#59 = CALENDAR_DATE ( 2017, 31, 1 ) ;
#60 = EDGE_CURVE ( 'NONE', #46, #167, #132, .T. ) ;
#61 = CARTESIAN_POINT ( 'NONE',  ( 2.951389070461460000, -2.951389070461460000, 5.308339293205629700E-005 ) ) ;
#62 = CARTESIAN_POINT ( 'NONE',  ( 0.0000000000000000000, 0.8680555561152809600, 0.0000000000000000000 ) ) ;
#63 = CARTESIAN_POINT ( 'NONE',  ( 1.913510623667739900E-016, 0.0000000000000000000, -0.001732850333500670000 ) ) ;
#64 = LINE ( 'NONE', #117, #114 ) ;
#65 = ORIENTED_EDGE ( 'NONE', *, *, #174, .T. ) ;
#66 = CARTESIAN_POINT ( 'NONE',  ( 0.0000000000000000000, 6.250000000000000000, -0.001732850333500670000 ) ) ;
#67 = PERSON_AND_ORGANIZATION ( #147, #263 ) ;
#68 = CARTESIAN_POINT ( 'NONE',  ( -7.654042494670958600E-016, -6.250000000000000000, -0.001732850333500670000 ) ) ;
#69 = CARTESIAN_POINT ( 'NONE',  ( -2.951389070461460000, 2.951389070461460000, 5.308339293205629700E-005 ) ) ;
#70 = DIRECTION ( 'NONE',  ( 0.0000000000000000000, -0.0000000000000000000, 1.000000000000000000 ) ) ;
#71 = CARTESIAN_POINT ( 'NONE',  ( 5.034722790088319600, -5.034722790088319600, -0.0003850784814597020900 ) ) ;
#72 = APPROVAL ( #287, 'UNSPECIFIED' ) ;
#73 = CARTESIAN_POINT ( 'NONE',  ( 0.0000000000000000000, 0.0000000000000000000, 0.0000000000000000000 ) ) ;
#74 = APPLICATION_PROTOCOL_DEFINITION ( 'international standard', 'config_control_design', 1994, #153 ) ;
#75 = APPROVAL_ROLE ( '' ) ;
#76 = DATE_AND_TIME ( #101, #84 ) ;
#77 = CYLINDRICAL_SURFACE ( 'NONE', #12, 6.250000000000000000 ) ;
#78 = MECHANICAL_CONTEXT ( 'NONE', #153, 'mechanical' ) ;
#79 = ADVANCED_FACE ( 'NONE', ( #129 ), #223, .T. ) ;
#80 = VERTEX_POINT ( 'NONE', #298 ) ;
#81 = CARTESIAN_POINT ( 'NONE',  ( 0.0000000000000000000, 0.0000000000000000000, 0.0000000000000000000 ) ) ;
#82 = CARTESIAN_POINT ( 'NONE',  ( -7.654042494670958600E-016, -6.250000000000000000, -0.001732850333500670000 ) ) ;
#83 = CARTESIAN_POINT ( 'NONE',  ( -0.8680555561152809600, 0.8680555561152809600, 0.0000000000000000000 ) ) ;
#84 = LOCAL_TIME ( 14, 38, 48.00000000000000000, #122 ) ;
#85 = FACE_OUTER_BOUND ( 'NONE', #97, .T. ) ;
#86 = CARTESIAN_POINT ( 'NONE',  ( 0.0000000000000000000, 5.034722790088319600, -0.0003850784814597019800 ) ) ;
#87 = FACE_OUTER_BOUND ( 'NONE', #26, .T. ) ;
#88 = EDGE_CURVE ( 'NONE', #267, #181, #5, .T. ) ;
#89 = CARTESIAN_POINT ( 'NONE',  ( 6.250000000000000000, 6.250000000000000000, -0.001732850333500670400 ) ) ;
#90 = DIRECTION ( 'NONE',  ( 0.0000000000000000000, -0.0000000000000000000, 1.000000000000000000 ) ) ;
#91 = LOCAL_TIME ( 14, 38, 48.00000000000000000, #171 ) ;
#92 = DIRECTION ( 'NONE',  ( 3.469446951953610000E-020, 6.815335531097890200E-037, 1.000000000000000000 ) ) ;
#93 = AXIS2_PLACEMENT_3D ( 'NONE', #213, #143, #36 ) ;
#94 = CARTESIAN_POINT ( 'NONE',  ( 0.0000000000000000000, 0.0000000000000000000, 0.0000000000000000000 ) ) ;
#95 = APPROVAL_PERSON_ORGANIZATION ( #110, #72, #75 ) ;
#96 = CARTESIAN_POINT ( 'NONE',  ( 0.0000000000000000000, 6.250000000000000000, -0.001732850333500670000 ) ) ;
#97 = EDGE_LOOP ( 'NONE', ( #151, #19 ) ) ;
#98 = EDGE_LOOP ( 'NONE', ( #107, #33, #234, #238 ) ) ;
#99 = CARTESIAN_POINT ( 'NONE',  ( -3.614409178179109900E-016, -2.951389070461460000, 5.308339293205629700E-005 ) ) ;
#100 = CARTESIAN_POINT ( 'NONE',  ( -2.951389070461460000, 1.807204589089550000E-016, 5.308339293205629700E-005 ) ) ;
#101 = CALENDAR_DATE ( 2017, 31, 1 ) ;
#102 = ORIENTED_EDGE ( 'NONE', *, *, #88, .T. ) ;
#103 = CARTESIAN_POINT ( 'NONE',  ( 0.0000000000000000000, 0.0000000000000000000, 0.0000000000000000000 ) ) ;
#104 = CARTESIAN_POINT ( 'NONE',  ( 1.913510623667739900E-016, 0.0000000000000000000, -3.000000000000000000 ) ) ;
#105 = CARTESIAN_POINT ( 'NONE',  ( 1.913510623667739900E-016, 0.0000000000000000000, -0.001732850333500670000 ) ) ;
#106 = PERSON_AND_ORGANIZATION ( #147, #263 ) ;
#107 = ORIENTED_EDGE ( 'NONE', *, *, #54, .F. ) ;
#108 =( BOUNDED_SURFACE ( )  B_SPLINE_SURFACE ( 3, 2, ( 
 ( #30, #193, #269, #256, #138, #292, #163, #6, #230 ),
 ( #4, #83, #209, #112, #7, #191, #118, #164, #255 ),
 ( #270, #229, #139, #293, #195, #61, #233, #34, #272 ),
 ( #166, #273, #11, #199, #123, #173, #257, #274, #40 ),
 ( #39, #237, #10, #9, #218, #239, #35, #89, #66 ) ),
 .UNSPECIFIED., .F., .T., .F. ) 
 B_SPLINE_SURFACE_WITH_KNOTS ( ( 4, 1, 4 ),
 ( 3, 2, 2, 2, 3 ),
 ( 0.0000000000000000000, 0.4166666309254979900, 1.000000000000000000 ),
 ( 0.0000000000000000000, 90.00000000000000000, 180.0000000000000000, 270.0000000000000000, 360.0000000000000000 ),
 .UNSPECIFIED. ) 
 GEOMETRIC_REPRESENTATION_ITEM ( )  RATIONAL_B_SPLINE_SURFACE ( (
 ( 1.000000000000000000, 0.7071067811865480200, 1.000000000000000000, 0.7071067811865480200, 1.000000000000000000, 0.7071067811865480200, 1.000000000000000000, 0.7071067811865480200, 1.000000000000000000),
 ( 1.000000000000000000, 0.7071067811865480200, 1.000000000000000000, 0.7071067811865480200, 1.000000000000000000, 0.7071067811865480200, 1.000000000000000000, 0.7071067811865480200, 1.000000000000000000),
 ( 1.000000000000000000, 0.7071067811865480200, 1.000000000000000000, 0.7071067811865480200, 1.000000000000000000, 0.7071067811865480200, 1.000000000000000000, 0.7071067811865480200, 1.000000000000000000),
 ( 1.000000000000000000, 0.7071067811865480200, 1.000000000000000000, 0.7071067811865480200, 1.000000000000000000, 0.7071067811865480200, 1.000000000000000000, 0.7071067811865480200, 1.000000000000000000),
 ( 1.000000000000000000, 0.7071067811865480200, 1.000000000000000000, 0.7071067811865480200, 1.000000000000000000, 0.7071067811865480200, 1.000000000000000000, 0.7071067811865480200, 1.000000000000000000) ) ) 
 REPRESENTATION_ITEM ( '' )  SURFACE ( )  );
#109 = EDGE_LOOP ( 'NONE', ( #172, #15, #219, #290, #32 ) ) ;
#110 = PERSON_AND_ORGANIZATION ( #147, #263 ) ;
#111 = EDGE_LOOP ( 'NONE', ( #245, #278, #102, #65 ) ) ;
#112 = CARTESIAN_POINT ( 'NONE',  ( -0.8680555561152809600, -0.8680555561152809600, 0.0000000000000000000 ) ) ;
#113 = DATE_AND_TIME ( #59, #91 ) ;
#114 = VECTOR ( 'NONE', #268, 1000.000000000000000 ) ;
#115 = EDGE_CURVE ( 'NONE', #137, #46, #121, .T. ) ;
#116 = AXIS2_PLACEMENT_3D ( 'NONE', #103, #133, #184 ) ;
#117 = CARTESIAN_POINT ( 'NONE',  ( 6.250000000000000000, 8.881784197001250400E-016, -3.000000000000000000 ) ) ;
#118 = CARTESIAN_POINT ( 'NONE',  ( 0.8680555561152809600, -1.594592187417979900E-016, 0.0000000000000000000 ) ) ;
#119 = DIRECTION ( 'NONE',  ( 1.000000000000000000, 0.0000000000000000000, 0.0000000000000000000 ) ) ;
#120 = ORIENTED_EDGE ( 'NONE', *, *, #192, .T. ) ;
#121 = B_SPLINE_CURVE_WITH_KNOTS ( 'NONE', 3,
 ( #277, #8, #141, #294, #68 ),
 .UNSPECIFIED., .F., .F.,
 ( 4, 1, 4 ),
 ( 0.0000000000000000000, 0.4166666309254979900, 1.000000000000000000 ),
 .UNSPECIFIED. ) ;
#122 = COORDINATED_UNIVERSAL_TIME_OFFSET ( 5, 0, .BEHIND. ) ;
#123 = CARTESIAN_POINT ( 'NONE',  ( -6.165757149475899900E-016, -5.034722790088319600, -0.0003850784814597019800 ) ) ;
#124 = DIRECTION ( 'NONE',  ( 1.000000000000000000, 0.0000000000000000000, 0.0000000000000000000 ) ) ;
#125 = APPROVAL_DATE_TIME ( #113, #72 ) ;
#126 = CARTESIAN_POINT ( 'NONE',  ( -0.8680555561152809600, 5.315307291393270300E-017, 0.0000000000000000000 ) ) ;
#127 = CARTESIAN_POINT ( 'NONE',  ( -6.250000000000000000, 3.827021247335479800E-016, -0.001732850333500670000 ) ) ;
#128 = CARTESIAN_POINT ( 'NONE',  ( -6.250000000000000000, 6.250000000000000000, -0.001732850333500670400 ) ) ;
#129 = FACE_OUTER_BOUND ( 'NONE', #109, .T. ) ;
#130 = CARTESIAN_POINT ( 'NONE',  ( 0.0000000000000000000, 0.8680555561152809600, 0.0000000000000000000 ) ) ;
#131 = ADVANCED_FACE ( 'NONE', ( #85 ), #38, .T. ) ;
#132 = CIRCLE ( 'NONE', #235, 6.250000000000000000 ) ;
#133 = DIRECTION ( 'NONE',  ( 0.0000000000000000000, 0.0000000000000000000, 1.000000000000000000 ) ) ;
#134 =( NAMED_UNIT ( * ) SI_UNIT ( $, .STERADIAN. ) SOLID_ANGLE_UNIT ( ) );
#135 = CC_DESIGN_PERSON_AND_ORGANIZATION_ASSIGNMENT ( #165, #49, ( #215 ) ) ;
#136 = CC_DESIGN_DATE_AND_TIME_ASSIGNMENT ( #212, #20, ( #203 ) ) ;
#137 = VERTEX_POINT ( 'NONE', #236 ) ;
#138 = CARTESIAN_POINT ( 'NONE',  ( 0.0000000000000000000, 0.0000000000000000000, 0.0000000000000000000 ) ) ;
#139 = CARTESIAN_POINT ( 'NONE',  ( -2.951389070461460000, 1.807204589089550000E-016, 5.308339293205629700E-005 ) ) ;
#140 = AXIS2_PLACEMENT_3D ( 'NONE', #279, #70, #304 ) ;
#141 = CARTESIAN_POINT ( 'NONE',  ( -3.614409178179109900E-016, -2.951389070461460000, 5.308339293205629700E-005 ) ) ;
#142 = APPROVAL ( #208, 'UNSPECIFIED' ) ;
#143 = DIRECTION ( 'NONE',  ( 0.0000000000000000000, 0.0000000000000000000, -1.000000000000000000 ) ) ;
#144 = COORDINATED_UNIVERSAL_TIME_OFFSET ( 5, 0, .BEHIND. ) ;
#145 = CIRCLE ( 'NONE', #254, 6.250000000000000000 ) ;
#146 = CARTESIAN_POINT ( 'NONE',  ( -0.8680555561152809600, 0.8680555561152809600, 0.0000000000000000000 ) ) ;
#147 = PERSON ( 'UNSPECIFIED', 'UNSPECIFIED', 'UNSPECIFIED', ('UNSPECIFIED'), ('UNSPECIFIED'), ('UNSPECIFIED') ) ;
#148 = CARTESIAN_POINT ( 'NONE',  ( 0.0000000000000000000, 6.250000000000000000, -0.001732850333500670000 ) ) ;
#149 = CARTESIAN_POINT ( 'NONE',  ( 6.250000000000000000, -1.148106374200640000E-015, -0.001732850333500670000 ) ) ;
#150 = LINE ( 'NONE', #25, #155 ) ;
#151 = ORIENTED_EDGE ( 'NONE', *, *, #161, .F. ) ;
#152 = CARTESIAN_POINT ( 'NONE',  ( 0.0000000000000000000, 0.0000000000000000000, 0.0000000000000000000 ) ) ;
#153 = APPLICATION_CONTEXT ( 'configuration controlled 3d designs of mechanical parts and assemblies' ) ;
#154 = DIRECTION ( 'NONE',  ( 0.0000000000000000000, -0.0000000000000000000, 1.000000000000000000 ) ) ;
#155 = VECTOR ( 'NONE', #247, 1000.000000000000000 ) ;
#156 = UNCERTAINTY_MEASURE_WITH_UNIT (LENGTH_MEASURE( 1.000000000000000100E-005 ), #285, 'distance_accuracy_value', 'NONE');
#157 = DATE_TIME_ROLE ( 'classification_date' ) ;
#158 = APPROVAL_PERSON_ORGANIZATION ( #222, #289, #182 ) ;
#159 = ORIENTED_EDGE ( 'NONE', *, *, #211, .F. ) ;
#160 = MANIFOLD_SOLID_BREP ( 'Imported1', #295 ) ;
#161 = EDGE_CURVE ( 'NONE', #80, #305, #56, .T. ) ;
#162 = CC_DESIGN_APPROVAL ( #142, ( #28 ) ) ;
#163 = CARTESIAN_POINT ( 'NONE',  ( 0.0000000000000000000, 0.0000000000000000000, 0.0000000000000000000 ) ) ;
#164 = CARTESIAN_POINT ( 'NONE',  ( 0.8680555561152809600, 0.8680555561152809600, 0.0000000000000000000 ) ) ;
#165 = PERSON_AND_ORGANIZATION ( #147, #263 ) ;
#166 = CARTESIAN_POINT ( 'NONE',  ( 0.0000000000000000000, 5.034722790088319600, -0.0003850784814597019800 ) ) ;
#167 = VERTEX_POINT ( 'NONE', #296 ) ;
#168 = DIRECTION ( 'NONE',  ( 0.0000000000000000000, -0.0000000000000000000, 1.000000000000000000 ) ) ;
#169 = CARTESIAN_POINT ( 'NONE',  ( 1.913510623667739900E-016, 0.0000000000000000000, -3.000000000000000000 ) ) ;
#170 = CARTESIAN_POINT ( 'NONE',  ( -6.250000000000000000, 1.653582669167220900E-015, -0.001732850333500670000 ) ) ;
#171 = COORDINATED_UNIVERSAL_TIME_OFFSET ( 5, 0, .BEHIND. ) ;
#172 = ORIENTED_EDGE ( 'NONE', *, *, #161, .T. ) ;
#173 = CARTESIAN_POINT ( 'NONE',  ( 5.034722790088319600, -5.034722790088319600, -0.0003850784814597020900 ) ) ;
#174 = EDGE_CURVE ( 'NONE', #181, #46, #281, .T. ) ;
#175 = CARTESIAN_POINT ( 'NONE',  ( -6.250000000000000000, -6.250000000000000000, -0.001732850333500670400 ) ) ;
#176 = LOCAL_TIME ( 14, 38, 48.00000000000000000, #144 ) ;
#177 = CARTESIAN_POINT ( 'NONE',  ( 0.0000000000000000000, 2.951389070461460000, 5.308339293205629700E-005 ) ) ;
#178 = CARTESIAN_POINT ( 'NONE',  ( 0.8680555561152809600, -1.594592187417979900E-016, 0.0000000000000000000 ) ) ;
#179 = CARTESIAN_POINT ( 'NONE',  ( -0.8680555561152809600, -0.8680555561152809600, 0.0000000000000000000 ) ) ;
#180 = CARTESIAN_POINT ( 'NONE',  ( 0.8680555561152809600, 0.8680555561152809600, 0.0000000000000000000 ) ) ;
#181 = VERTEX_POINT ( 'NONE', #170 ) ;
#182 = APPROVAL_ROLE ( '' ) ;
#183 = DIRECTION ( 'NONE',  ( 0.0000000000000000000, -0.0000000000000000000, 1.000000000000000000 ) ) ;
#184 = DIRECTION ( 'NONE',  ( 1.000000000000000000, 0.0000000000000000000, 0.0000000000000000000 ) ) ;
#185 = PERSON_AND_ORGANIZATION ( #147, #263 ) ;
#186 = SECURITY_CLASSIFICATION_LEVEL ( 'unclassified' ) ;
#187 = ADVANCED_FACE ( 'NONE', ( #206 ), #47, .T. ) ;
#188 = SECURITY_CLASSIFICATION ( '', '', #186 ) ;
#189 = PRODUCT_DEFINITION_SHAPE ( 'NONE', 'NONE',  #203 ) ;
#190 = CALENDAR_DATE ( 2017, 31, 1 ) ;
#191 = CARTESIAN_POINT ( 'NONE',  ( 0.8680555561152809600, -0.8680555561152809600, 0.0000000000000000000 ) ) ;
#192 = EDGE_CURVE ( 'NONE', #305, #80, #43, .T. ) ;
#193 = CARTESIAN_POINT ( 'NONE',  ( 0.0000000000000000000, 0.0000000000000000000, 0.0000000000000000000 ) ) ;
#194 = LOCAL_TIME ( 14, 38, 48.00000000000000000, #217 ) ;
#195 = CARTESIAN_POINT ( 'NONE',  ( -3.614409178179109900E-016, -2.951389070461460000, 5.308339293205629700E-005 ) ) ;
#196 = CARTESIAN_POINT ( 'NONE',  ( 0.0000000000000000000, 8.881784197001250400E-016, -3.000000000000000000 ) ) ;
#197 = DIRECTION ( 'NONE',  ( 1.000000000000000000, 0.0000000000000000000, 0.0000000000000000000 ) ) ;
#198 = CARTESIAN_POINT ( 'NONE',  ( 1.913510623667739900E-016, 0.0000000000000000000, -0.001732850333500670000 ) ) ;
#199 = CARTESIAN_POINT ( 'NONE',  ( -5.034722790088319600, -5.034722790088319600, -0.0003850784814597020900 ) ) ;
#200 = ORIENTED_EDGE ( 'NONE', *, *, #60, .F. ) ;
#201 = CARTESIAN_POINT ( 'NONE',  ( 0.0000000000000000000, 5.034722790088319600, -0.0003850784814597019800 ) ) ;
#202 = CARTESIAN_POINT ( 'NONE',  ( 0.8680555561152809600, -0.8680555561152809600, 0.0000000000000000000 ) ) ;
#203 = PRODUCT_DEFINITION ( 'UNKNOWN', '', #28, #276 ) ;
#204 = CARTESIAN_POINT ( 'NONE',  ( 0.0000000000000000000, 0.8680555561152809600, 0.0000000000000000000 ) ) ;
#205 = LOCAL_TIME ( 14, 38, 48.00000000000000000, #280 ) ;
#206 = FACE_OUTER_BOUND ( 'NONE', #111, .T. ) ;
#207 = CC_DESIGN_APPROVAL ( #72, ( #203 ) ) ;
#208 = APPROVAL_STATUS ( 'not_yet_approved' ) ;
#209 = CARTESIAN_POINT ( 'NONE',  ( -0.8680555561152809600, 5.315307291393270300E-017, 0.0000000000000000000 ) ) ;
#210 = CARTESIAN_POINT ( 'NONE',  ( 0.0000000000000000000, 2.951389070461460000, 5.308339293205629700E-005 ) ) ;
#211 = EDGE_CURVE ( 'NONE', #305, #181, #150, .T. ) ;
#212 = DATE_AND_TIME ( #240, #205 ) ;
#213 = CARTESIAN_POINT ( 'NONE',  ( -12.95400000000000100, 0.0000000000000000000, -3.000000000000000000 ) ) ;
#214 = DIRECTION ( 'NONE',  ( 0.0000000000000000000, -0.0000000000000000000, 1.000000000000000000 ) ) ;
#215 = PRODUCT ( 'Web Model 66753', 'Web Model 66753', '', ( #78 ) ) ;
#216 = AXIS2_PLACEMENT_3D ( 'NONE', #196, #92, #119 ) ;
#217 = COORDINATED_UNIVERSAL_TIME_OFFSET ( 5, 0, .BEHIND. ) ;
#218 = CARTESIAN_POINT ( 'NONE',  ( -7.654042494670959600E-016, -6.250000000000000000, -0.001732850333500670000 ) ) ;
#219 = ORIENTED_EDGE ( 'NONE', *, *, #88, .F. ) ;
#220 = CC_DESIGN_PERSON_AND_ORGANIZATION_ASSIGNMENT ( #67, #23, ( #203 ) ) ;
#221 = CARTESIAN_POINT ( 'NONE',  ( 6.250000000000000000, 6.250000000000000000, -0.001732850333500670400 ) ) ;
#222 = PERSON_AND_ORGANIZATION ( #147, #263 ) ;
#223 = CYLINDRICAL_SURFACE ( 'NONE', #216, 6.250000000000000000 ) ;
#224 = CARTESIAN_POINT ( 'NONE',  ( 2.951389070461460000, -2.951389070461460000, 5.308339293205629700E-005 ) ) ;
#225 = CARTESIAN_POINT ( 'NONE',  ( -7.654042494670959600E-016, -6.250000000000000000, -0.001732850333500670000 ) ) ;
#226 = PRODUCT_RELATED_PRODUCT_CATEGORY ( 'detail', '', ( #215 ) ) ;
#227 = ORIENTED_EDGE ( 'NONE', *, *, #174, .F. ) ;
#228 = PERSON_AND_ORGANIZATION_ROLE ( 'creator' ) ;
#229 = CARTESIAN_POINT ( 'NONE',  ( -2.951389070461460000, 2.951389070461460000, 5.308339293205629700E-005 ) ) ;
#230 = CARTESIAN_POINT ( 'NONE',  ( 0.0000000000000000000, 0.0000000000000000000, 0.0000000000000000000 ) ) ;
#231 = CC_DESIGN_PERSON_AND_ORGANIZATION_ASSIGNMENT ( #106, #1, ( #188 ) ) ;
#232 = PERSON_AND_ORGANIZATION ( #147, #263 ) ;
#233 = CARTESIAN_POINT ( 'NONE',  ( 2.951389070461460000, -5.421613767268659900E-016, 5.308339293205629700E-005 ) ) ;
#234 = ORIENTED_EDGE ( 'NONE', *, *, #60, .T. ) ;
#235 = AXIS2_PLACEMENT_3D ( 'NONE', #198, #168, #124 ) ;
#236 = CARTESIAN_POINT ( 'NONE',  ( 0.0000000000000000000, 0.0000000000000000000, 0.0000000000000000000 ) ) ;
#237 = CARTESIAN_POINT ( 'NONE',  ( -6.250000000000000000, 6.250000000000000000, -0.001732850333500670400 ) ) ;
#238 = ORIENTED_EDGE ( 'NONE', *, *, #288, .T. ) ;
#239 = CARTESIAN_POINT ( 'NONE',  ( 6.250000000000000000, -6.250000000000000000, -0.001732850333500670400 ) ) ;
#240 = CALENDAR_DATE ( 2017, 31, 1 ) ;
#241 = CARTESIAN_POINT ( 'NONE',  ( 0.0000000000000000000, 0.0000000000000000000, 0.0000000000000000000 ) ) ;
#242 = CARTESIAN_POINT ( 'NONE',  ( 5.034722790088319600, 5.034722790088319600, -0.0003850784814597020900 ) ) ;
#243 = CARTESIAN_POINT ( 'NONE',  ( 0.0000000000000000000, 0.0000000000000000000, 0.0000000000000000000 ) ) ;
#244 = CARTESIAN_POINT ( 'NONE',  ( -5.034722790088319600, 5.034722790088319600, -0.0003850784814597020900 ) ) ;
#245 = ORIENTED_EDGE ( 'NONE', *, *, #115, .F. ) ;
#246 = CARTESIAN_POINT ( 'NONE',  ( -1.063061458278650000E-016, -0.8680555561152809600, 0.0000000000000000000 ) ) ;
#247 = DIRECTION ( 'NONE',  ( 3.469446951953610000E-020, 6.815335531097890200E-037, 1.000000000000000000 ) ) ;
#248 = PERSON_AND_ORGANIZATION ( #147, #263 ) ;
#249 = APPROVAL_ROLE ( '' ) ;
#250 = FACE_OUTER_BOUND ( 'NONE', #98, .T. ) ;
#251 = ADVANCED_BREP_SHAPE_REPRESENTATION ( 'Web Model 66753', ( #160, #116 ), #52 ) ;
#252 = CARTESIAN_POINT ( 'NONE',  ( 0.0000000000000000000, 6.250000000000000000, -0.001732850333500670000 ) ) ;
#253 = B_SPLINE_CURVE_WITH_KNOTS ( 'NONE', 3,
 ( #81, #62, #210, #86, #252 ),
 .UNSPECIFIED., .F., .F.,
 ( 4, 1, 4 ),
 ( 0.0000000000000000000, 0.4166666309254979900, 1.000000000000000000 ),
 .UNSPECIFIED. ) ;
#254 = AXIS2_PLACEMENT_3D ( 'NONE', #105, #154, #21 ) ;
#255 = CARTESIAN_POINT ( 'NONE',  ( 0.0000000000000000000, 0.8680555561152809600, 0.0000000000000000000 ) ) ;
#256 = CARTESIAN_POINT ( 'NONE',  ( 0.0000000000000000000, 0.0000000000000000000, 0.0000000000000000000 ) ) ;
#257 = CARTESIAN_POINT ( 'NONE',  ( 5.034722790088319600, -9.248635724213842400E-016, -0.0003850784814597019800 ) ) ;
#258 = CARTESIAN_POINT ( 'NONE',  ( -5.034722790088319600, 3.082878574737949900E-016, -0.0003850784814597019800 ) ) ;
#259 = CARTESIAN_POINT ( 'NONE',  ( 0.0000000000000000000, 0.0000000000000000000, 0.0000000000000000000 ) ) ;
#260 = CARTESIAN_POINT ( 'NONE',  ( 0.0000000000000000000, 2.951389070461460000, 5.308339293205629700E-005 ) ) ;
#261 = CARTESIAN_POINT ( 'NONE',  ( 5.034722790088319600, -9.248635724213842400E-016, -0.0003850784814597019800 ) ) ;
#262 = CARTESIAN_POINT ( 'NONE',  ( 0.0000000000000000000, 0.0000000000000000000, 0.0000000000000000000 ) ) ;
#263 = ORGANIZATION ( 'UNSPECIFIED', 'UNSPECIFIED', '' ) ;
#264 = CARTESIAN_POINT ( 'NONE',  ( -6.250000000000000000, 1.653582669167220900E-015, -3.000000000000000000 ) ) ;
#265 = PERSON_AND_ORGANIZATION_ROLE ( 'design_supplier' ) ;
#266 = DIRECTION ( 'NONE',  ( 1.000000000000000000, 0.0000000000000000000, 0.0000000000000000000 ) ) ;
#267 = VERTEX_POINT ( 'NONE', #17 ) ;
#268 = DIRECTION ( 'NONE',  ( 3.469446951953610000E-020, 6.815335531097890200E-037, 1.000000000000000000 ) ) ;
#269 = CARTESIAN_POINT ( 'NONE',  ( 0.0000000000000000000, 0.0000000000000000000, 0.0000000000000000000 ) ) ;
#270 = CARTESIAN_POINT ( 'NONE',  ( 0.0000000000000000000, 2.951389070461460000, 5.308339293205629700E-005 ) ) ;
#271 = CC_DESIGN_PERSON_AND_ORGANIZATION_ASSIGNMENT ( #232, #228, ( #28 ) ) ;
#272 = CARTESIAN_POINT ( 'NONE',  ( 0.0000000000000000000, 2.951389070461460000, 5.308339293205629700E-005 ) ) ;
#273 = CARTESIAN_POINT ( 'NONE',  ( -5.034722790088319600, 5.034722790088319600, -0.0003850784814597020900 ) ) ;
#274 = CARTESIAN_POINT ( 'NONE',  ( 5.034722790088319600, 5.034722790088319600, -0.0003850784814597020900 ) ) ;
#275 = DIRECTION ( 'NONE',  ( 1.000000000000000000, 0.0000000000000000000, 0.0000000000000000000 ) ) ;
#276 = DESIGN_CONTEXT ( 'detailed design', #48, 'design' ) ;
#277 = CARTESIAN_POINT ( 'NONE',  ( 0.0000000000000000000, 0.0000000000000000000, 0.0000000000000000000 ) ) ;
#278 = ORIENTED_EDGE ( 'NONE', *, *, #54, .T. ) ;
#279 = CARTESIAN_POINT ( 'NONE',  ( 1.913510623667739900E-016, 0.0000000000000000000, -0.001732850333500670000 ) ) ;
#280 = COORDINATED_UNIVERSAL_TIME_OFFSET ( 5, 0, .BEHIND. ) ;
#281 = CIRCLE ( 'NONE', #140, 6.250000000000000000 ) ;
#282 = CARTESIAN_POINT ( 'NONE',  ( -2.951389070461460000, -2.951389070461460000, 5.308339293205629700E-005 ) ) ;
#283 = CARTESIAN_POINT ( 'NONE',  ( 0.0000000000000000000, 0.0000000000000000000, 0.0000000000000000000 ) ) ;
#284 = CC_DESIGN_DATE_AND_TIME_ASSIGNMENT ( #2, #157, ( #188 ) ) ;
#285 =( LENGTH_UNIT ( ) NAMED_UNIT ( * ) SI_UNIT ( .MILLI., .METRE. ) );
#286 = SHAPE_DEFINITION_REPRESENTATION ( #189, #251 ) ;
#287 = APPROVAL_STATUS ( 'not_yet_approved' ) ;
#288 = EDGE_CURVE ( 'NONE', #167, #267, #145, .T. ) ;
#289 = APPROVAL ( #53, 'UNSPECIFIED' ) ;
#290 = ORIENTED_EDGE ( 'NONE', *, *, #288, .F. ) ;
#291 = CC_DESIGN_SECURITY_CLASSIFICATION ( #188, ( #28 ) ) ;
#292 = CARTESIAN_POINT ( 'NONE',  ( 0.0000000000000000000, 0.0000000000000000000, 0.0000000000000000000 ) ) ;
#293 = CARTESIAN_POINT ( 'NONE',  ( -2.951389070461460000, -2.951389070461460000, 5.308339293205629700E-005 ) ) ;
#294 = CARTESIAN_POINT ( 'NONE',  ( -6.165757149475899900E-016, -5.034722790088319600, -0.0003850784814597019800 ) ) ;
#295 = CLOSED_SHELL ( 'NONE', ( #55, #79, #187, #131, #24 ) ) ;
#296 = CARTESIAN_POINT ( 'NONE',  ( 6.250000000000000000, 0.0000000000000000000, -0.001732850333500670000 ) ) ;
#297 = AXIS2_PLACEMENT_3D ( 'NONE', #169, #90, #275 ) ;
#298 = CARTESIAN_POINT ( 'NONE',  ( 6.250000000000000000, 0.0000000000000000000, -3.000000000000000000 ) ) ;
#299 = APPROVAL_PERSON_ORGANIZATION ( #185, #142, #249 ) ;
#300 = CARTESIAN_POINT ( 'NONE',  ( 2.951389070461460000, 2.951389070461460000, 5.308339293205629700E-005 ) ) ;
#301 = CARTESIAN_POINT ( 'NONE',  ( 0.0000000000000000000, 0.0000000000000000000, 0.0000000000000000000 ) ) ;
#302 = CC_DESIGN_APPROVAL ( #289, ( #188 ) ) ;
#303 = AXIS2_PLACEMENT_3D ( 'NONE', #104, #183, #266 ) ;
#304 = DIRECTION ( 'NONE',  ( 1.000000000000000000, 0.0000000000000000000, 0.0000000000000000000 ) ) ;
#305 = VERTEX_POINT ( 'NONE', #264 ) ;
ENDSEC;
END-ISO-10303-21;
