ISO-10303-21;
HEADER;
FILE_DESCRIPTION (( 'STEP AP203' ),
    '1' );
FILE_NAME ('TTN051878-E0W.STEP',
    '2017-04-18T15:08:25',
    ( 'admin' ),
    ( '' ),
    'SwSTEP 2.0',
    'SolidWorks 2016',
    '' );
FILE_SCHEMA (( 'CONFIG_CONTROL_DESIGN' ));
ENDSEC;

DATA;
#1 = CIRCLE ( 'NONE', #76, 2.177047244094488100 ) ;
#2 = VERTEX_POINT ( 'NONE', #309 ) ;
#3 = CARTESIAN_POINT ( 'NONE',  ( 0.0000000000000000000, 3.974215479699882200E-016, -0.04022650783169276500 ) ) ;
#4 = EDGE_CURVE ( 'NONE', #31, #280, #90, .T. ) ;
#5 = LINE ( 'NONE', #206, #138 ) ;
#6 = PRODUCT_DEFINITION_SHAPE ( 'NONE', 'NONE',  #72 ) ;
#7 = CARTESIAN_POINT ( 'NONE',  ( 0.0000000000000000000, -3.974215479699881200E-016, 0.04022650783169248700 ) ) ;
#8 = AXIS2_PLACEMENT_3D ( 'NONE', #126, #95, #259 ) ;
#9 = AXIS2_PLACEMENT_3D ( 'NONE', #236, #139, #290 ) ;
#10 = EDGE_CURVE ( 'NONE', #84, #164, #287, .T. ) ;
#11 = DIRECTION ( 'NONE',  ( 0.0000000000000000000, 1.836909530733575300E-016, -1.000000000000000000 ) ) ;
#12 = ORIENTED_EDGE ( 'NONE', *, *, #254, .T. ) ;
#13 = DIRECTION ( 'NONE',  ( 1.000000000000000000, -1.224646799147353200E-016, -2.249565377136128300E-032 ) ) ;
#14 = ORIENTED_EDGE ( 'NONE', *, *, #4, .F. ) ;
#15 = EDGE_CURVE ( 'NONE', #217, #183, #80, .T. ) ;
#16 = ADVANCED_FACE ( 'NONE', ( #86 ), #329, .T. ) ;
#17 = DIRECTION ( 'NONE',  ( 0.0000000000000000000, -1.000000000000000000, -1.762447968318489900E-016 ) ) ;
#18 = CC_DESIGN_SECURITY_CLASSIFICATION ( #172, ( #279 ) ) ;
#19 = APPROVAL_DATE_TIME ( #188, #218 ) ;
#20 = CIRCLE ( 'NONE', #24, 0.2421922557051655000 ) ;
#21 =( LENGTH_UNIT ( ) NAMED_UNIT ( * ) SI_UNIT ( $, .METRE. ) );
#22 = DIRECTION ( 'NONE',  ( 0.0000000000000000000, 1.836909530733575300E-016, -1.000000000000000000 ) ) ;
#23 = ORIENTED_EDGE ( 'NONE', *, *, #269, .F. ) ;
#24 = AXIS2_PLACEMENT_3D ( 'NONE', #302, #32, #63 ) ;
#25 = DIRECTION ( 'NONE',  ( 0.0000000000000000000, 1.000000000000000000, 1.254840932402703300E-016 ) ) ;
#26 = COORDINATED_UNIVERSAL_TIME_OFFSET ( 5, 0, .BEHIND. ) ;
#27 = DIRECTION ( 'NONE',  ( 0.0000000000000000000, -1.000000000000000000, -1.878145495644181100E-016 ) ) ;
#28 = CARTESIAN_POINT ( 'NONE',  ( 2.965999707276074000E-017, -0.2421922557051647800, 0.04022650783169271600 ) ) ;
#29 = DATE_AND_TIME ( #291, #56 ) ;
#30 = CIRCLE ( 'NONE', #251, 0.2421922557051650600 ) ;
#31 = VERTEX_POINT ( 'NONE', #267 ) ;
#32 = DIRECTION ( 'NONE',  ( 0.0000000000000000000, 1.836909530733575300E-016, -1.000000000000000000 ) ) ;
#33 = CC_DESIGN_PERSON_AND_ORGANIZATION_ASSIGNMENT ( #265, #132, ( #172 ) ) ;
#34 = FACE_OUTER_BOUND ( 'NONE', #276, .T. ) ;
#35 = CIRCLE ( 'NONE', #264, 0.2499999999999999700 ) ;
#36 = PERSON ( 'UNSPECIFIED', 'UNSPECIFIED', 'UNSPECIFIED', ('UNSPECIFIED'), ('UNSPECIFIED'), ('UNSPECIFIED') ) ;
#37 = ORIENTED_EDGE ( 'NONE', *, *, #254, .F. ) ;
#38 = CARTESIAN_POINT ( 'NONE',  ( 0.0000000000000000000, 0.0000000000000000000, -2.123307086614173700 ) ) ;
#39 = CARTESIAN_POINT ( 'NONE',  ( 0.0000000000000000000, 1.565126959716612200E-017, -0.03146419981275117700 ) ) ;
#40 = DATE_AND_TIME ( #180, #46 ) ;
#41 = PERSON_AND_ORGANIZATION ( #36, #194 ) ;
#42 = DIRECTION ( 'NONE',  ( 1.000000000000000000, 0.0000000000000000000, 0.0000000000000000000 ) ) ;
#43 = CIRCLE ( 'NONE', #182, 2.177047244094488100 ) ;
#44 = ORIENTED_EDGE ( 'NONE', *, *, #257, .T. ) ;
#45 = DIRECTION ( 'NONE',  ( -0.0000000000000000000, -1.836909530733575300E-016, 1.000000000000000000 ) ) ;
#46 = LOCAL_TIME ( 11, 8, 25.00000000000000000, #54 ) ;
#47 = COORDINATED_UNIVERSAL_TIME_OFFSET ( 5, 0, .BEHIND. ) ;
#48 = CIRCLE ( 'NONE', #118, 0.2421922557051655000 ) ;
#49 = DIRECTION ( 'NONE',  ( 0.0000000000000000000, -1.000000000000000000, -1.707404996040164800E-016 ) ) ;
#50 = EDGE_LOOP ( 'NONE', ( #293, #263, #225 ) ) ;
#51 = APPROVAL_ROLE ( '' ) ;
#52 = CARTESIAN_POINT ( 'NONE',  ( 0.0000000000000000000, 2.482335183454800600E-018, 0.04022650783169276500 ) ) ;
#53 = VERTEX_POINT ( 'NONE', #238 ) ;
#54 = COORDINATED_UNIVERSAL_TIME_OFFSET ( 5, 0, .BEHIND. ) ;
#55 = CARTESIAN_POINT ( 'NONE',  ( 2.965999707276071000E-017, 0.2421922557051649200, -0.04022650783169274400 ) ) ;
#56 = LOCAL_TIME ( 11, 8, 25.00000000000000000, #223 ) ;
#57 = EDGE_CURVE ( 'NONE', #217, #205, #131, .T. ) ;
#58 = EDGE_LOOP ( 'NONE', ( #296, #66, #161 ) ) ;
#59 = CC_DESIGN_PERSON_AND_ORGANIZATION_ASSIGNMENT ( #222, #115, ( #72 ) ) ;
#60 = LINE ( 'NONE', #28, #253 ) ;
#61 = CARTESIAN_POINT ( 'NONE',  ( 0.0000000000000000000, 1.565126959716611000E-017, -0.03146419981275117700 ) ) ;
#62 = CC_DESIGN_APPROVAL ( #145, ( #172 ) ) ;
#63 = DIRECTION ( 'NONE',  ( 0.0000000000000000000, -1.000000000000000000, -1.762447968318489900E-016 ) ) ;
#64 = CARTESIAN_POINT ( 'NONE',  ( 0.0000000000000000000, 0.0000000000000000000, -2.123307086614173700 ) ) ;
#65 = CC_DESIGN_APPROVAL ( #69, ( #72 ) ) ;
#66 = ORIENTED_EDGE ( 'NONE', *, *, #57, .T. ) ;
#67 = DATE_AND_TIME ( #307, #175 ) ;
#68 =( GEOMETRIC_REPRESENTATION_CONTEXT ( 3 ) GLOBAL_UNCERTAINTY_ASSIGNED_CONTEXT ( ( #112 ) ) GLOBAL_UNIT_ASSIGNED_CONTEXT ( ( #111, #85, #249 ) ) REPRESENTATION_CONTEXT ( 'NONE', 'WORKASPACE' ) );
#69 = APPROVAL ( #320, 'UNSPECIFIED' ) ;
#70 = AXIS2_PLACEMENT_3D ( 'NONE', #108, #42, #281 ) ;
#71 = AXIS2_PLACEMENT_3D ( 'NONE', #64, #213, #25 ) ;
#72 = PRODUCT_DEFINITION ( 'UNKNOWN', '', #279, #171 ) ;
#73 = CARTESIAN_POINT ( 'NONE',  ( 0.0000000000000000000, 0.0000000000000000000, 2.123307086614173700 ) ) ;
#74 = DIRECTION ( 'NONE',  ( 8.147194942626474400E-017, 0.6652689533258787600, 0.7466037903337281500 ) ) ;
#75 = AXIS2_PLACEMENT_3D ( 'NONE', #151, #312, #326 ) ;
#76 = AXIS2_PLACEMENT_3D ( 'NONE', #92, #233, #158 ) ;
#77 = DIRECTION ( 'NONE',  ( -0.0000000000000000000, -1.836909530733566100E-016, 1.000000000000000000 ) ) ;
#78 = ORIENTED_EDGE ( 'NONE', *, *, #10, .T. ) ;
#79 = EDGE_CURVE ( 'NONE', #2, #84, #235, .T. ) ;
#80 = CIRCLE ( 'NONE', #208, 0.2421922557051650600 ) ;
#81 = ADVANCED_FACE ( 'NONE', ( #34 ), #314, .T. ) ;
#82 = AXIS2_PLACEMENT_3D ( 'NONE', #73, #299, #122 ) ;
#83 = AXIS2_PLACEMENT_3D ( 'NONE', #327, #77, #49 ) ;
#84 = VERTEX_POINT ( 'NONE', #298 ) ;
#85 =( NAMED_UNIT ( * ) PLANE_ANGLE_UNIT ( ) SI_UNIT ( $, .RADIAN. ) );
#86 = FACE_OUTER_BOUND ( 'NONE', #242, .T. ) ;
#87 = CARTESIAN_POINT ( 'NONE',  ( 0.0000000000000000000, -0.2421922557051641400, -0.04022650783169277900 ) ) ;
#88 = AXIS2_PLACEMENT_3D ( 'NONE', #38, #174, #116 ) ;
#89 = AXIS2_PLACEMENT_3D ( 'NONE', #178, #13, #190 ) ;
#90 = CIRCLE ( 'NONE', #89, 2.177047244094488100 ) ;
#91 = DIRECTION ( 'NONE',  ( 0.0000000000000000000, -0.6652689533258791000, 0.7466037903337280300 ) ) ;
#92 = CARTESIAN_POINT ( 'NONE',  ( 0.0000000000000000000, 0.0000000000000000000, 2.123307086614173700 ) ) ;
#93 = CC_DESIGN_APPROVAL ( #218, ( #279 ) ) ;
#94 = SPHERICAL_SURFACE ( 'NONE', #70, 2.177047244094488100 ) ;
#95 = DIRECTION ( 'NONE',  ( -0.0000000000000000000, -1.836909530733575300E-016, 1.000000000000000000 ) ) ;
#96 = PRODUCT_RELATED_PRODUCT_CATEGORY ( 'detail', '', ( #330 ) ) ;
#97 = CARTESIAN_POINT ( 'NONE',  ( 0.0000000000000000000, -0.2499999999999999700, -0.03146419981275122600 ) ) ;
#98 = EDGE_LOOP ( 'NONE', ( #187, #23, #286, #300 ) ) ;
#99 = DIRECTION ( 'NONE',  ( -0.0000000000000000000, -1.836909530733575300E-016, 1.000000000000000000 ) ) ;
#100 = DIRECTION ( 'NONE',  ( -0.0000000000000000000, -1.836909530733575300E-016, 1.000000000000000000 ) ) ;
#101 = CALENDAR_DATE ( 2017, 18, 4 ) ;
#102 = DIRECTION ( 'NONE',  ( 0.0000000000000000000, -1.000000000000000000, -1.878145495644181100E-016 ) ) ;
#103 = ORIENTED_EDGE ( 'NONE', *, *, #258, .T. ) ;
#104 = DIRECTION ( 'NONE',  ( 0.0000000000000000000, 1.836909530733575300E-016, -1.000000000000000000 ) ) ;
#105 = EDGE_CURVE ( 'NONE', #217, #84, #60, .T. ) ;
#106 = ADVANCED_FACE ( 'NONE', ( #323 ), #295, .T. ) ;
#107 = EDGE_CURVE ( 'NONE', #280, #53, #121, .T. ) ;
#108 = CARTESIAN_POINT ( 'NONE',  ( 0.0000000000000000000, 0.0000000000000000000, 2.123307086614173700 ) ) ;
#109 = APPROVAL_PERSON_ORGANIZATION ( #41, #145, #294 ) ;
#110 = CONICAL_SURFACE ( 'NONE', #173, 0.2421922557051647800, 0.7278539958938233800 ) ;
#111 =( CONVERSION_BASED_UNIT ( 'INCH', #240 ) LENGTH_UNIT ( ) NAMED_UNIT ( #246 ) );
#112 = UNCERTAINTY_MEASURE_WITH_UNIT (LENGTH_MEASURE( 1.000000000000000100E-005 ), #111, 'distance_accuracy_value', 'NONE');
#113 = ORIENTED_EDGE ( 'NONE', *, *, #170, .F. ) ;
#114 = MECHANICAL_CONTEXT ( 'NONE', #203, 'mechanical' ) ;
#115 = PERSON_AND_ORGANIZATION_ROLE ( 'creator' ) ;
#116 = DIRECTION ( 'NONE',  ( -1.224646799147353200E-016, -1.000000000000000000, 0.0000000000000000000 ) ) ;
#117 = ORIENTED_EDGE ( 'NONE', *, *, #226, .T. ) ;
#118 = AXIS2_PLACEMENT_3D ( 'NONE', #3, #11, #17 ) ;
#119 = DIRECTION ( 'NONE',  ( -0.0000000000000000000, -1.836909530733575300E-016, 1.000000000000000000 ) ) ;
#120 = DIRECTION ( 'NONE',  ( 0.0000000000000000000, 1.000000000000000000, 1.762447968318493100E-016 ) ) ;
#121 = LINE ( 'NONE', #148, #311 ) ;
#122 = DIRECTION ( 'NONE',  ( 0.0000000000000000000, -1.000000000000000000, -1.254840932402703300E-016 ) ) ;
#123 = DIRECTION ( 'NONE',  ( 0.0000000000000000000, 1.000000000000000000, 1.254840932402703300E-016 ) ) ;
#124 = DIRECTION ( 'NONE',  ( 0.0000000000000000000, 0.6652689533258953100, -0.7466037903337133800 ) ) ;
#125 = APPROVAL_DATE_TIME ( #29, #145 ) ;
#126 = CARTESIAN_POINT ( 'NONE',  ( 0.0000000000000000000, 1.565126959716612200E-017, -0.03146419981275117700 ) ) ;
#127 = PERSON_AND_ORGANIZATION ( #36, #194 ) ;
#128 = DIRECTION ( 'NONE',  ( -0.0000000000000000000, -1.836909530733575300E-016, 1.000000000000000000 ) ) ;
#129 = ADVANCED_FACE ( 'NONE', ( #232 ), #110, .T. ) ;
#130 = DIRECTION ( 'NONE',  ( 0.0000000000000000000, 1.000000000000000000, 1.762447968318493100E-016 ) ) ;
#131 = CIRCLE ( 'NONE', #88, 2.177047244094488100 ) ;
#132 = PERSON_AND_ORGANIZATION_ROLE ( 'classification_officer' ) ;
#133 = APPROVAL_STATUS ( 'not_yet_approved' ) ;
#134 = ORIENTED_EDGE ( 'NONE', *, *, #258, .F. ) ;
#135 = COORDINATED_UNIVERSAL_TIME_OFFSET ( 5, 0, .BEHIND. ) ;
#136 = CARTESIAN_POINT ( 'NONE',  ( 0.0000000000000000000, -3.974215479699881200E-016, 0.04022650783169248700 ) ) ;
#137 = CC_DESIGN_DATE_AND_TIME_ASSIGNMENT ( #189, #201, ( #172 ) ) ;
#138 = VECTOR ( 'NONE', #210, 39.37007874015748100 ) ;
#139 = DIRECTION ( 'NONE',  ( -0.0000000000000000000, -1.836909530733566100E-016, 1.000000000000000000 ) ) ;
#140 = EDGE_LOOP ( 'NONE', ( #156, #192, #229, #261 ) ) ;
#141 = ORIENTED_EDGE ( 'NONE', *, *, #257, .F. ) ;
#142 = AXIS2_PLACEMENT_3D ( 'NONE', #61, #99, #27 ) ;
#143 = SPHERICAL_SURFACE ( 'NONE', #186, 2.177047244094488100 ) ;
#144 = DIRECTION ( 'NONE',  ( 0.0000000000000000000, 1.836909530733575300E-016, -1.000000000000000000 ) ) ;
#145 = APPROVAL ( #133, 'UNSPECIFIED' ) ;
#146 = CC_DESIGN_PERSON_AND_ORGANIZATION_ASSIGNMENT ( #181, #292, ( #279 ) ) ;
#147 = FACE_OUTER_BOUND ( 'NONE', #305, .T. ) ;
#148 = CARTESIAN_POINT ( 'NONE',  ( 3.061616997868382400E-017, 0.2499999999999999700, -0.03146419981275112900 ) ) ;
#149 = VECTOR ( 'NONE', #124, 39.37007874015748900 ) ;
#150 = ORIENTED_EDGE ( 'NONE', *, *, #79, .F. ) ;
#151 = CARTESIAN_POINT ( 'NONE',  ( 0.0000000000000000000, 2.482335183454800600E-018, 0.04022650783169276500 ) ) ;
#152 = EDGE_CURVE ( 'NONE', #183, #205, #43, .T. ) ;
#153 = EDGE_CURVE ( 'NONE', #31, #318, #1, .T. ) ;
#154 = ORIENTED_EDGE ( 'NONE', *, *, #200, .T. ) ;
#155 = ADVANCED_FACE ( 'NONE', ( #273 ), #211, .T. ) ;
#156 = ORIENTED_EDGE ( 'NONE', *, *, #15, .F. ) ;
#157 = AXIS2_PLACEMENT_3D ( 'NONE', #219, #100, #266 ) ;
#158 = DIRECTION ( 'NONE',  ( 0.0000000000000000000, 0.0000000000000000000, 1.000000000000000000 ) ) ;
#159 = PERSON_AND_ORGANIZATION_ROLE ( 'creator' ) ;
#160 = SHAPE_DEFINITION_REPRESENTATION ( #6, #209 ) ;
#161 = ORIENTED_EDGE ( 'NONE', *, *, #152, .F. ) ;
#162 = APPLICATION_PROTOCOL_DEFINITION ( 'international standard', 'config_control_design', 1994, #322 ) ;
#163 = DIRECTION ( 'NONE',  ( 0.0000000000000000000, 0.0000000000000000000, -1.000000000000000000 ) ) ;
#164 = VERTEX_POINT ( 'NONE', #282 ) ;
#165 = CARTESIAN_POINT ( 'NONE',  ( 0.0000000000000000000, 4.091891894576536800E-018, 0.03146419981275117700 ) ) ;
#166 = ORIENTED_EDGE ( 'NONE', *, *, #153, .F. ) ;
#167 = PERSON_AND_ORGANIZATION ( #36, #194 ) ;
#168 = DIRECTION ( 'NONE',  ( 0.0000000000000000000, 1.000000000000000000, 1.762447968318495100E-016 ) ) ;
#169 = FACE_OUTER_BOUND ( 'NONE', #50, .T. ) ;
#170 = EDGE_CURVE ( 'NONE', #280, #318, #20, .T. ) ;
#171 = DESIGN_CONTEXT ( 'detailed design', #322, 'design' ) ;
#172 = SECURITY_CLASSIFICATION ( '', '', #250 ) ;
#173 = AXIS2_PLACEMENT_3D ( 'NONE', #52, #22, #168 ) ;
#174 = DIRECTION ( 'NONE',  ( -1.000000000000000000, 1.224646799147353200E-016, 2.249565377136128300E-032 ) ) ;
#175 = LOCAL_TIME ( 11, 8, 25.00000000000000000, #26 ) ;
#176 = ORIENTED_EDGE ( 'NONE', *, *, #262, .T. ) ;
#177 = ORIENTED_EDGE ( 'NONE', *, *, #107, .F. ) ;
#178 = CARTESIAN_POINT ( 'NONE',  ( 0.0000000000000000000, 0.0000000000000000000, 2.123307086614173700 ) ) ;
#179 = DIRECTION ( 'NONE',  ( -1.000000000000000000, 0.0000000000000000000, 0.0000000000000000000 ) ) ;
#180 = CALENDAR_DATE ( 2017, 18, 4 ) ;
#181 = PERSON_AND_ORGANIZATION ( #36, #194 ) ;
#182 = AXIS2_PLACEMENT_3D ( 'NONE', #313, #306, #163 ) ;
#183 = VERTEX_POINT ( 'NONE', #283 ) ;
#184 = PERSON_AND_ORGANIZATION_ROLE ( 'design_owner' ) ;
#185 = APPLICATION_PROTOCOL_DEFINITION ( 'international standard', 'config_control_design', 1994, #203 ) ;
#186 = AXIS2_PLACEMENT_3D ( 'NONE', #319, #179, #123 ) ;
#187 = ORIENTED_EDGE ( 'NONE', *, *, #105, .F. ) ;
#188 = DATE_AND_TIME ( #101, #284 ) ;
#189 = DATE_AND_TIME ( #285, #308 ) ;
#190 = DIRECTION ( 'NONE',  ( 1.224646799147353200E-016, 1.000000000000000000, 0.0000000000000000000 ) ) ;
#191 = EDGE_LOOP ( 'NONE', ( #113, #231, #37, #134 ) ) ;
#192 = ORIENTED_EDGE ( 'NONE', *, *, #105, .T. ) ;
#193 = APPROVAL_PERSON_ORGANIZATION ( #167, #218, #51 ) ;
#194 = ORGANIZATION ( 'UNSPECIFIED', 'UNSPECIFIED', '' ) ;
#195 = EDGE_LOOP ( 'NONE', ( #166, #215, #272 ) ) ;
#196 = FACE_OUTER_BOUND ( 'NONE', #274, .T. ) ;
#197 = ORIENTED_EDGE ( 'NONE', *, *, #153, .T. ) ;
#198 = ADVANCED_FACE ( 'NONE', ( #169 ), #214, .T. ) ;
#199 = CARTESIAN_POINT ( 'NONE',  ( 0.0000000000000000000, 4.091891894576536800E-018, 0.03146419981275117700 ) ) ;
#200 = EDGE_CURVE ( 'NONE', #164, #84, #35, .T. ) ;
#201 = DATE_TIME_ROLE ( 'classification_date' ) ;
#202 = VECTOR ( 'NONE', #91, 39.37007874015748100 ) ;
#203 = APPLICATION_CONTEXT ( 'configuration controlled 3d designs of mechanical parts and assemblies' ) ;
#204 = DATE_TIME_ROLE ( 'creation_date' ) ;
#205 = VERTEX_POINT ( 'NONE', #325 ) ;
#206 = CARTESIAN_POINT ( 'NONE',  ( 3.061616997868382400E-017, 0.2499999999999999700, 0.05374015748031500000 ) ) ;
#207 = ORIENTED_EDGE ( 'NONE', *, *, #226, .F. ) ;
#208 = AXIS2_PLACEMENT_3D ( 'NONE', #136, #119, #120 ) ;
#209 = ADVANCED_BREP_SHAPE_REPRESENTATION ( 'TTN051878-E0W', ( #248, #230 ), #68 ) ;
#210 = DIRECTION ( 'NONE',  ( -0.0000000000000000000, -1.836909530733566100E-016, 1.000000000000000000 ) ) ;
#211 = CONICAL_SURFACE ( 'NONE', #75, 0.2421922557051647800, 0.7278539958938233800 ) ;
#212 = ORIENTED_EDGE ( 'NONE', *, *, #79, .T. ) ;
#213 = DIRECTION ( 'NONE',  ( -1.000000000000000000, 0.0000000000000000000, 0.0000000000000000000 ) ) ;
#214 = SPHERICAL_SURFACE ( 'NONE', #71, 2.177047244094488100 ) ;
#215 = ORIENTED_EDGE ( 'NONE', *, *, #4, .T. ) ;
#216 = FACE_OUTER_BOUND ( 'NONE', #195, .T. ) ;
#217 = VERTEX_POINT ( 'NONE', #328 ) ;
#218 = APPROVAL ( #321, 'UNSPECIFIED' ) ;
#219 = CARTESIAN_POINT ( 'NONE',  ( 0.0000000000000000000, 1.565126959716611000E-017, -0.03146419981275117700 ) ) ;
#220 = CC_DESIGN_DATE_AND_TIME_ASSIGNMENT ( #40, #204, ( #72 ) ) ;
#221 = ADVANCED_FACE ( 'NONE', ( #275 ), #143, .T. ) ;
#222 = PERSON_AND_ORGANIZATION ( #36, #194 ) ;
#223 = COORDINATED_UNIVERSAL_TIME_OFFSET ( 5, 0, .BEHIND. ) ;
#224 = LINE ( 'NONE', #97, #202 ) ;
#225 = ORIENTED_EDGE ( 'NONE', *, *, #152, .T. ) ;
#226 = EDGE_CURVE ( 'NONE', #53, #164, #5, .T. ) ;
#227 = CC_DESIGN_PERSON_AND_ORGANIZATION_ASSIGNMENT ( #297, #184, ( #330 ) ) ;
#228 = DIRECTION ( 'NONE',  ( 1.000000000000000000, 0.0000000000000000000, 0.0000000000000000000 ) ) ;
#229 = ORIENTED_EDGE ( 'NONE', *, *, #200, .F. ) ;
#230 = AXIS2_PLACEMENT_3D ( 'NONE', #243, #252, #228 ) ;
#231 = ORIENTED_EDGE ( 'NONE', *, *, #107, .T. ) ;
#232 = FACE_OUTER_BOUND ( 'NONE', #140, .T. ) ;
#233 = DIRECTION ( 'NONE',  ( -1.000000000000000000, 0.0000000000000000000, -0.0000000000000000000 ) ) ;
#234 = DIRECTION ( 'NONE',  ( 0.0000000000000000000, 1.000000000000000000, 1.878145495644181100E-016 ) ) ;
#235 = LINE ( 'NONE', #278, #268 ) ;
#236 = CARTESIAN_POINT ( 'NONE',  ( 0.0000000000000000000, 0.0000000000000000000, 0.05374015748031495800 ) ) ;
#237 = CC_DESIGN_PERSON_AND_ORGANIZATION_ASSIGNMENT ( #256, #159, ( #279 ) ) ;
#238 = CARTESIAN_POINT ( 'NONE',  ( 3.061616997868382400E-017, 0.2499999999999999700, -0.03146419981275112900 ) ) ;
#239 = CARTESIAN_POINT ( 'NONE',  ( 0.0000000000000000000, 0.2421922557051647800, 0.04022650783169280700 ) ) ;
#240 = LENGTH_MEASURE_WITH_UNIT ( LENGTH_MEASURE( 0.02539999999999999900 ), #21 );
#241 = ORIENTED_EDGE ( 'NONE', *, *, #262, .F. ) ;
#242 = EDGE_LOOP ( 'NONE', ( #207, #44, #212, #78 ) ) ;
#243 = CARTESIAN_POINT ( 'NONE',  ( 0.0000000000000000000, 0.0000000000000000000, 0.0000000000000000000 ) ) ;
#244 = AXIS2_PLACEMENT_3D ( 'NONE', #39, #45, #102 ) ;
#245 = ADVANCED_FACE ( 'NONE', ( #216 ), #94, .T. ) ;
#246 = DIMENSIONAL_EXPONENTS ( 1.000000000000000000, 0.0000000000000000000, 0.0000000000000000000, 0.0000000000000000000, 0.0000000000000000000, 0.0000000000000000000, 0.0000000000000000000 ) ;
#247 = APPROVAL_ROLE ( '' ) ;
#248 = MANIFOLD_SOLID_BREP ( 'TTN051879-1-solid1', #304 ) ;
#249 =( NAMED_UNIT ( * ) SI_UNIT ( $, .STERADIAN. ) SOLID_ANGLE_UNIT ( ) );
#250 = SECURITY_CLASSIFICATION_LEVEL ( 'unclassified' ) ;
#251 = AXIS2_PLACEMENT_3D ( 'NONE', #7, #128, #130 ) ;
#252 = DIRECTION ( 'NONE',  ( 0.0000000000000000000, 0.0000000000000000000, 1.000000000000000000 ) ) ;
#253 = VECTOR ( 'NONE', #301, 39.37007874015748900 ) ;
#254 = EDGE_CURVE ( 'NONE', #2, #53, #260, .T. ) ;
#255 = APPROVAL_DATE_TIME ( #67, #69 ) ;
#256 = PERSON_AND_ORGANIZATION ( #36, #194 ) ;
#257 = EDGE_CURVE ( 'NONE', #53, #2, #271, .T. ) ;
#258 = EDGE_CURVE ( 'NONE', #318, #2, #224, .T. ) ;
#259 = DIRECTION ( 'NONE',  ( 0.0000000000000000000, -1.000000000000000000, -1.878145495644181100E-016 ) ) ;
#260 = CIRCLE ( 'NONE', #8, 0.2499999999999999700 ) ;
#261 = ORIENTED_EDGE ( 'NONE', *, *, #315, .F. ) ;
#262 = EDGE_CURVE ( 'NONE', #318, #280, #48, .T. ) ;
#263 = ORIENTED_EDGE ( 'NONE', *, *, #15, .T. ) ;
#264 = AXIS2_PLACEMENT_3D ( 'NONE', #165, #104, #303 ) ;
#265 = PERSON_AND_ORGANIZATION ( #36, #194 ) ;
#266 = DIRECTION ( 'NONE',  ( 0.0000000000000000000, -1.000000000000000000, -1.878145495644181100E-016 ) ) ;
#267 = CARTESIAN_POINT ( 'NONE',  ( 0.0000000000000000000, 2.665981861997969100E-016, -0.05374015748031461800 ) ) ;
#268 = VECTOR ( 'NONE', #270, 39.37007874015748100 ) ;
#269 = EDGE_CURVE ( 'NONE', #183, #217, #30, .T. ) ;
#270 = DIRECTION ( 'NONE',  ( -0.0000000000000000000, -1.836909530733566100E-016, 1.000000000000000000 ) ) ;
#271 = CIRCLE ( 'NONE', #244, 0.2499999999999999700 ) ;
#272 = ORIENTED_EDGE ( 'NONE', *, *, #170, .T. ) ;
#273 = FACE_OUTER_BOUND ( 'NONE', #98, .T. ) ;
#274 = EDGE_LOOP ( 'NONE', ( #177, #241, #103, #141 ) ) ;
#275 = FACE_OUTER_BOUND ( 'NONE', #58, .T. ) ;
#276 = EDGE_LOOP ( 'NONE', ( #14, #197, #176 ) ) ;
#277 = AXIS2_PLACEMENT_3D ( 'NONE', #199, #144, #234 ) ;
#278 = CARTESIAN_POINT ( 'NONE',  ( 0.0000000000000000000, -0.2499999999999999700, 0.05374015748031491700 ) ) ;
#279 = PRODUCT_DEFINITION_FORMATION_WITH_SPECIFIED_SOURCE ( 'ANY', '', #330, .NOT_KNOWN. ) ;
#280 = VERTEX_POINT ( 'NONE', #55 ) ;
#281 = DIRECTION ( 'NONE',  ( 0.0000000000000000000, -1.000000000000000000, -1.254840932402703300E-016 ) ) ;
#282 = CARTESIAN_POINT ( 'NONE',  ( 3.061616997868382400E-017, 0.2499999999999999700, 0.03146419981275122600 ) ) ;
#283 = CARTESIAN_POINT ( 'NONE',  ( 0.0000000000000000000, 0.2421922557051653400, 0.04022650783169236900 ) ) ;
#284 = LOCAL_TIME ( 11, 8, 25.00000000000000000, #135 ) ;
#285 = CALENDAR_DATE ( 2017, 18, 4 ) ;
#286 = ORIENTED_EDGE ( 'NONE', *, *, #315, .T. ) ;
#287 = CIRCLE ( 'NONE', #277, 0.2499999999999999700 ) ;
#288 = APPROVAL_PERSON_ORGANIZATION ( #127, #69, #247 ) ;
#289 = ADVANCED_FACE ( 'NONE', ( #147 ), #310, .T. ) ;
#290 = DIRECTION ( 'NONE',  ( 0.0000000000000000000, -1.000000000000000000, -1.707404996040164800E-016 ) ) ;
#291 = CALENDAR_DATE ( 2017, 18, 4 ) ;
#292 = PERSON_AND_ORGANIZATION_ROLE ( 'design_supplier' ) ;
#293 = ORIENTED_EDGE ( 'NONE', *, *, #57, .F. ) ;
#294 = APPROVAL_ROLE ( '' ) ;
#295 = CONICAL_SURFACE ( 'NONE', #142, 0.2499999999999999700, 0.7278539958938016200 ) ;
#296 = ORIENTED_EDGE ( 'NONE', *, *, #269, .T. ) ;
#297 = PERSON_AND_ORGANIZATION ( #36, #194 ) ;
#298 = CARTESIAN_POINT ( 'NONE',  ( 0.0000000000000000000, -0.2499999999999999700, 0.03146419981275112900 ) ) ;
#299 = DIRECTION ( 'NONE',  ( 1.000000000000000000, 0.0000000000000000000, 0.0000000000000000000 ) ) ;
#300 = ORIENTED_EDGE ( 'NONE', *, *, #10, .F. ) ;
#301 = DIRECTION ( 'NONE',  ( 8.147194942626674100E-017, -0.6652689533258950800, -0.7466037903337137100 ) ) ;
#302 = CARTESIAN_POINT ( 'NONE',  ( 0.0000000000000000000, 3.974215479699882200E-016, -0.04022650783169276500 ) ) ;
#303 = DIRECTION ( 'NONE',  ( 0.0000000000000000000, 1.000000000000000000, 1.878145495644181100E-016 ) ) ;
#304 = CLOSED_SHELL ( 'NONE', ( #129, #106, #245, #289, #221, #198, #16, #81, #317, #155 ) ) ;
#305 = EDGE_LOOP ( 'NONE', ( #12, #117, #154, #150 ) ) ;
#306 = DIRECTION ( 'NONE',  ( 1.000000000000000000, -0.0000000000000000000, 0.0000000000000000000 ) ) ;
#307 = CALENDAR_DATE ( 2017, 18, 4 ) ;
#308 = LOCAL_TIME ( 11, 8, 25.00000000000000000, #47 ) ;
#309 = CARTESIAN_POINT ( 'NONE',  ( 0.0000000000000000000, -0.2499999999999999700, -0.03146419981275122600 ) ) ;
#310 = CYLINDRICAL_SURFACE ( 'NONE', #9, 0.2499999999999999700 ) ;
#311 = VECTOR ( 'NONE', #74, 39.37007874015748900 ) ;
#312 = DIRECTION ( 'NONE',  ( 0.0000000000000000000, 1.836909530733575300E-016, -1.000000000000000000 ) ) ;
#313 = CARTESIAN_POINT ( 'NONE',  ( 0.0000000000000000000, 0.0000000000000000000, -2.123307086614173700 ) ) ;
#314 = SPHERICAL_SURFACE ( 'NONE', #82, 2.177047244094488100 ) ;
#315 = EDGE_CURVE ( 'NONE', #183, #164, #316, .T. ) ;
#316 = LINE ( 'NONE', #239, #149 ) ;
#317 = ADVANCED_FACE ( 'NONE', ( #196 ), #324, .T. ) ;
#318 = VERTEX_POINT ( 'NONE', #87 ) ;
#319 = CARTESIAN_POINT ( 'NONE',  ( 0.0000000000000000000, 0.0000000000000000000, -2.123307086614173700 ) ) ;
#320 = APPROVAL_STATUS ( 'not_yet_approved' ) ;
#321 = APPROVAL_STATUS ( 'not_yet_approved' ) ;
#322 = APPLICATION_CONTEXT ( 'configuration controlled 3d designs of mechanical parts and assemblies' ) ;
#323 = FACE_OUTER_BOUND ( 'NONE', #191, .T. ) ;
#324 = CONICAL_SURFACE ( 'NONE', #157, 0.2499999999999999700, 0.7278539958938016200 ) ;
#325 = CARTESIAN_POINT ( 'NONE',  ( 0.0000000000000000000, -2.665981861997969100E-016, 0.05374015748031461800 ) ) ;
#326 = DIRECTION ( 'NONE',  ( 0.0000000000000000000, 1.000000000000000000, 1.762447968318495100E-016 ) ) ;
#327 = CARTESIAN_POINT ( 'NONE',  ( 0.0000000000000000000, 0.0000000000000000000, 0.05374015748031495800 ) ) ;
#328 = CARTESIAN_POINT ( 'NONE',  ( -2.965999707276084500E-017, -0.2421922557051660900, 0.04022650783169233500 ) ) ;
#329 = CYLINDRICAL_SURFACE ( 'NONE', #83, 0.2499999999999999700 ) ;
#330 = PRODUCT ( 'TTN051878-E0W', 'TTN051878-E0W', '', ( #114 ) ) ;
ENDSEC;
END-ISO-10303-21;
