ISO-10303-21;
HEADER;
FILE_DESCRIPTION (( 'STEP AP203' ),
    '1' );
FILE_NAME ('Web Model 47777_48577.step',
    '2017-04-26T16:34:34',
    ( '' ),
    ( '' ),
    'SwSTEP 2.0',
    'SolidWorks 2016',
    '' );
FILE_SCHEMA (( 'CONFIG_CONTROL_DESIGN' ));
ENDSEC;

DATA;
#1 = DIRECTION ( 'NONE',  ( 0.0000000000000000000, 1.000000000000000000, -0.0000000000000000000 ) ) ;
#2 = ORIENTED_EDGE ( 'NONE', *, *, #204, .F. ) ;
#3 = AXIS2_PLACEMENT_3D ( 'NONE', #141, #304, #112 ) ;
#4 = ADVANCED_FACE ( 'NONE', ( #230 ), #289, .F. ) ;
#5 = ORIENTED_EDGE ( 'NONE', *, *, #188, .T. ) ;
#6 = CARTESIAN_POINT ( 'NONE',  ( -5.000000000000000900, 0.0000000000000000000, -5.000000000000000000 ) ) ;
#7 = ORIENTED_EDGE ( 'NONE', *, *, #313, .F. ) ;
#8 = ADVANCED_FACE ( 'NONE', ( #175 ), #46, .F. ) ;
#9 = LINE ( 'NONE', #16, #61 ) ;
#10 = DIRECTION ( 'NONE',  ( 0.7071067811865474600, -0.7071067811865474600, 0.0000000000000000000 ) ) ;
#11 = EDGE_CURVE ( 'NONE', #34, #70, #113, .T. ) ;
#12 = ADVANCED_FACE ( 'NONE', ( #123 ), #162, .T. ) ;
#13 = DATE_TIME_ROLE ( 'classification_date' ) ;
#14 = ORIENTED_EDGE ( 'NONE', *, *, #188, .F. ) ;
#15 = CC_DESIGN_DATE_AND_TIME_ASSIGNMENT ( #258, #13, ( #301 ) ) ;
#16 = CARTESIAN_POINT ( 'NONE',  ( 4.999999999999999100, -5.000000000000000900, 5.000000000000000000 ) ) ;
#17 = ORIENTED_EDGE ( 'NONE', *, *, #248, .T. ) ;
#18 = CARTESIAN_POINT ( 'NONE',  ( 4.999999999999999100, -5.000000000000000900, 5.000000000000000000 ) ) ;
#19 = CARTESIAN_POINT ( 'NONE',  ( 0.0000000000000000000, 0.0000000000000000000, 5.000000000000000000 ) ) ;
#20 =( GEOMETRIC_REPRESENTATION_CONTEXT ( 3 ) GLOBAL_UNCERTAINTY_ASSIGNED_CONTEXT ( ( #264 ) ) GLOBAL_UNIT_ASSIGNED_CONTEXT ( ( #129, #176, #199 ) ) REPRESENTATION_CONTEXT ( 'NONE', 'WORKASPACE' ) );
#21 = ORIENTED_EDGE ( 'NONE', *, *, #248, .F. ) ;
#22 = CARTESIAN_POINT ( 'NONE',  ( -9.199760500100243800E-016, -9.199760500100243800E-016, 5.000000000000000000 ) ) ;
#23 = CALENDAR_DATE ( 2017, 26, 4 ) ;
#24 = APPROVAL_ROLE ( '' ) ;
#25 = VECTOR ( 'NONE', #154, 1000.000000000000100 ) ;
#26 = DIRECTION ( 'NONE',  ( 0.0000000000000000000, 1.000000000000000000, 0.0000000000000000000 ) ) ;
#27 = APPROVAL ( #75, 'UNSPECIFIED' ) ;
#28 = CARTESIAN_POINT ( 'NONE',  ( -9.199760500100243800E-016, -9.199760500100243800E-016, -5.000000000000000000 ) ) ;
#29 = DATE_AND_TIME ( #238, #303 ) ;
#30 = APPROVAL_DATE_TIME ( #306, #239 ) ;
#31 = ADVANCED_FACE ( 'NONE', ( #312 ), #140, .T. ) ;
#32 = APPROVAL_PERSON_ORGANIZATION ( #278, #150, #220 ) ;
#33 = CARTESIAN_POINT ( 'NONE',  ( 0.0000000000000000000, 0.0000000000000000000, 5.000000000000000000 ) ) ;
#34 = VERTEX_POINT ( 'NONE', #37 ) ;
#35 = EDGE_LOOP ( 'NONE', ( #143, #287, #79, #5 ) ) ;
#36 = AXIS2_PLACEMENT_3D ( 'NONE', #318, #245, #285 ) ;
#37 = CARTESIAN_POINT ( 'NONE',  ( 4.999999999999999100, -5.000000000000000900, 5.000000000000000000 ) ) ;
#38 = DIRECTION ( 'NONE',  ( -0.0000000000000000000, 0.0000000000000000000, 1.000000000000000000 ) ) ;
#39 = ORIENTED_EDGE ( 'NONE', *, *, #131, .T. ) ;
#40 = FACE_OUTER_BOUND ( 'NONE', #196, .T. ) ;
#41 = CARTESIAN_POINT ( 'NONE',  ( -5.000000000000000900, -5.000000000000000900, -5.000000000000000000 ) ) ;
#42 = ADVANCED_FACE ( 'NONE', ( #40 ), #240, .T. ) ;
#43 = SECURITY_CLASSIFICATION_LEVEL ( 'unclassified' ) ;
#44 = DIRECTION ( 'NONE',  ( 0.0000000000000000000, 0.0000000000000000000, 1.000000000000000000 ) ) ;
#45 = ORIENTED_EDGE ( 'NONE', *, *, #149, .T. ) ;
#46 = PLANE ( 'NONE',  #96 ) ;
#47 = CC_DESIGN_APPROVAL ( #27, ( #301 ) ) ;
#48 = CARTESIAN_POINT ( 'NONE',  ( 4.999999999999999100, 4.999999999999999100, -5.000000000000000000 ) ) ;
#49 = VERTEX_POINT ( 'NONE', #189 ) ;
#50 = APPLICATION_PROTOCOL_DEFINITION ( 'international standard', 'config_control_design', 1994, #117 ) ;
#51 = EDGE_CURVE ( 'NONE', #295, #251, #179, .T. ) ;
#52 = DIRECTION ( 'NONE',  ( 0.0000000000000000000, 1.000000000000000000, -0.0000000000000000000 ) ) ;
#53 = APPROVAL_DATE_TIME ( #29, #27 ) ;
#54 = ORIENTED_EDGE ( 'NONE', *, *, #204, .T. ) ;
#55 = VERTEX_POINT ( 'NONE', #41 ) ;
#56 = ORIENTED_EDGE ( 'NONE', *, *, #294, .F. ) ;
#57 = ADVANCED_FACE ( 'NONE', ( #311 ), #82, .T. ) ;
#58 = AXIS2_PLACEMENT_3D ( 'NONE', #259, #26, #280 ) ;
#59 = ADVANCED_FACE ( 'NONE', ( #308 ), #275, .F. ) ;
#60 = COORDINATED_UNIVERSAL_TIME_OFFSET ( 5, 0, .BEHIND. ) ;
#61 = VECTOR ( 'NONE', #100, 1000.000000000000000 ) ;
#62 = ORIENTED_EDGE ( 'NONE', *, *, #294, .T. ) ;
#63 = CARTESIAN_POINT ( 'NONE',  ( 0.0000000000000000000, -5.000000000000000900, -5.000000000000000000 ) ) ;
#64 = CC_DESIGN_SECURITY_CLASSIFICATION ( #301, ( #225 ) ) ;
#65 = ORIENTED_EDGE ( 'NONE', *, *, #66, .F. ) ;
#66 = EDGE_CURVE ( 'NONE', #73, #70, #218, .T. ) ;
#67 = PERSON_AND_ORGANIZATION ( #69, #193 ) ;
#68 = DIRECTION ( 'NONE',  ( -0.0000000000000000000, -0.0000000000000000000, -1.000000000000000000 ) ) ;
#69 = PERSON ( 'UNSPECIFIED', 'UNSPECIFIED', 'UNSPECIFIED', ('UNSPECIFIED'), ('UNSPECIFIED'), ('UNSPECIFIED') ) ;
#70 = VERTEX_POINT ( 'NONE', #167 ) ;
#71 = ORIENTED_EDGE ( 'NONE', *, *, #116, .F. ) ;
#72 = PERSON_AND_ORGANIZATION_ROLE ( 'design_supplier' ) ;
#73 = VERTEX_POINT ( 'NONE', #302 ) ;
#74 = ADVANCED_FACE ( 'NONE', ( #315 ), #222, .F. ) ;
#75 = APPROVAL_STATUS ( 'not_yet_approved' ) ;
#76 = PERSON_AND_ORGANIZATION_ROLE ( 'creator' ) ;
#77 = LINE ( 'NONE', #92, #209 ) ;
#78 = ADVANCED_FACE ( 'NONE', ( #138 ), #235, .T. ) ;
#79 = ORIENTED_EDGE ( 'NONE', *, *, #165, .T. ) ;
#80 = VERTEX_POINT ( 'NONE', #314 ) ;
#81 = PRODUCT_RELATED_PRODUCT_CATEGORY ( 'detail', '', ( #273 ) ) ;
#82 = PLANE ( 'NONE',  #228 ) ;
#83 = LOCAL_TIME ( 12, 34, 34.00000000000000000, #60 ) ;
#84 = EDGE_CURVE ( 'NONE', #292, #49, #118, .T. ) ;
#85 = ADVANCED_FACE ( 'NONE', ( #186 ), #283, .F. ) ;
#86 = EDGE_LOOP ( 'NONE', ( #125, #71, #21, #244 ) ) ;
#87 = DIRECTION ( 'NONE',  ( 1.000000000000000000, 0.0000000000000000000, 0.0000000000000000000 ) ) ;
#88 = APPROVAL_STATUS ( 'not_yet_approved' ) ;
#89 = LINE ( 'NONE', #6, #232 ) ;
#90 = LINE ( 'NONE', #18, #226 ) ;
#91 = DIRECTION ( 'NONE',  ( -1.000000000000000000, 0.0000000000000000000, 0.0000000000000000000 ) ) ;
#92 = CARTESIAN_POINT ( 'NONE',  ( -9.199760500100243800E-016, -9.199760500100243800E-016, 5.000000000000000000 ) ) ;
#93 = CALENDAR_DATE ( 2017, 26, 4 ) ;
#94 = ORIENTED_EDGE ( 'NONE', *, *, #277, .T. ) ;
#95 = LOCAL_TIME ( 12, 34, 34.00000000000000000, #168 ) ;
#96 = AXIS2_PLACEMENT_3D ( 'NONE', #320, #234, #180 ) ;
#97 = CARTESIAN_POINT ( 'NONE',  ( -5.000000000000000900, 4.999999999999999100, 5.000000000000000000 ) ) ;
#98 = COORDINATED_UNIVERSAL_TIME_OFFSET ( 5, 0, .BEHIND. ) ;
#99 = PERSON_AND_ORGANIZATION ( #69, #193 ) ;
#100 = DIRECTION ( 'NONE',  ( -0.0000000000000000000, -0.0000000000000000000, -1.000000000000000000 ) ) ;
#101 = CALENDAR_DATE ( 2017, 26, 4 ) ;
#102 = EDGE_CURVE ( 'NONE', #261, #55, #127, .T. ) ;
#103 = PERSON_AND_ORGANIZATION ( #69, #193 ) ;
#104 = LINE ( 'NONE', #191, #156 ) ;
#105 = SHAPE_DEFINITION_REPRESENTATION ( #159, #255 ) ;
#106 = DIRECTION ( 'NONE',  ( 0.0000000000000000000, 1.000000000000000000, -0.0000000000000000000 ) ) ;
#107 = LINE ( 'NONE', #174, #203 ) ;
#108 = EDGE_LOOP ( 'NONE', ( #270, #266, #56 ) ) ;
#109 = AXIS2_PLACEMENT_3D ( 'NONE', #260, #316, #212 ) ;
#110 = DIRECTION ( 'NONE',  ( 1.000000000000000000, 0.0000000000000000000, 0.0000000000000000000 ) ) ;
#111 = CARTESIAN_POINT ( 'NONE',  ( -5.000000000000000900, -5.000000000000000900, 5.000000000000000000 ) ) ;
#112 = DIRECTION ( 'NONE',  ( -0.7071067811865474600, 0.7071067811865474600, 0.0000000000000000000 ) ) ;
#113 = LINE ( 'NONE', #269, #246 ) ;
#114 = EDGE_LOOP ( 'NONE', ( #45, #39, #237 ) ) ;
#115 = EDGE_LOOP ( 'NONE', ( #62, #7, #152, #254 ) ) ;
#116 = EDGE_CURVE ( 'NONE', #34, #80, #90, .T. ) ;
#117 = APPLICATION_CONTEXT ( 'configuration controlled 3d designs of mechanical parts and assemblies' ) ;
#118 = LINE ( 'NONE', #97, #271 ) ;
#119 = APPROVAL_PERSON_ORGANIZATION ( #67, #239, #172 ) ;
#120 = CARTESIAN_POINT ( 'NONE',  ( 4.999999999999999100, -5.000000000000000900, -5.000000000000000000 ) ) ;
#121 = CC_DESIGN_PERSON_AND_ORGANIZATION_ASSIGNMENT ( #103, #247, ( #273 ) ) ;
#122 = CARTESIAN_POINT ( 'NONE',  ( 4.999999999999999100, -5.000000000000000900, 5.000000000000000000 ) ) ;
#123 = FACE_OUTER_BOUND ( 'NONE', #139, .T. ) ;
#124 = LOCAL_TIME ( 12, 34, 34.00000000000000000, #151 ) ;
#125 = ORIENTED_EDGE ( 'NONE', *, *, #233, .T. ) ;
#126 = AXIS2_PLACEMENT_3D ( 'NONE', #33, #216, #110 ) ;
#127 = LINE ( 'NONE', #111, #169 ) ;
#128 = MECHANICAL_CONTEXT ( 'NONE', #117, 'mechanical' ) ;
#129 =( LENGTH_UNIT ( ) NAMED_UNIT ( * ) SI_UNIT ( .MILLI., .METRE. ) );
#130 = CARTESIAN_POINT ( 'NONE',  ( -5.000000000000000900, 4.999999999999999100, 5.000000000000000000 ) ) ;
#131 = EDGE_CURVE ( 'NONE', #49, #236, #307, .T. ) ;
#132 = ORIENTED_EDGE ( 'NONE', *, *, #66, .T. ) ;
#133 = CARTESIAN_POINT ( 'NONE',  ( -0.0000000000000000000, 4.999999999999999100, -5.000000000000000000 ) ) ;
#134 = EDGE_LOOP ( 'NONE', ( #291, #293, #132, #223 ) ) ;
#135 = ORIENTED_EDGE ( 'NONE', *, *, #11, .T. ) ;
#136 = PRODUCT_DEFINITION ( 'UNKNOWN', '', #225, #202 ) ;
#137 = DIRECTION ( 'NONE',  ( -0.0000000000000000000, -0.0000000000000000000, -1.000000000000000000 ) ) ;
#138 = FACE_OUTER_BOUND ( 'NONE', #35, .T. ) ;
#139 = EDGE_LOOP ( 'NONE', ( #17, #135, #65 ) ) ;
#140 = PLANE ( 'NONE',  #155 ) ;
#141 = CARTESIAN_POINT ( 'NONE',  ( -9.199760500100243800E-016, -9.199760500100243800E-016, 5.000000000000000000 ) ) ;
#142 = CARTESIAN_POINT ( 'NONE',  ( 4.999999999999999100, 4.999999999999999100, 5.000000000000000000 ) ) ;
#143 = ORIENTED_EDGE ( 'NONE', *, *, #131, .F. ) ;
#144 = VECTOR ( 'NONE', #1, 1000.000000000000000 ) ;
#145 = CARTESIAN_POINT ( 'NONE',  ( 4.999999999999999100, 0.0000000000000000000, -5.000000000000000000 ) ) ;
#146 = CARTESIAN_POINT ( 'NONE',  ( 0.0000000000000000000, 4.999999999999999100, 5.000000000000000000 ) ) ;
#147 = CARTESIAN_POINT ( 'NONE',  ( -5.000000000000000900, 4.999999999999999100, 5.000000000000000000 ) ) ;
#148 = DIRECTION ( 'NONE',  ( -1.000000000000000000, 0.0000000000000000000, 0.0000000000000000000 ) ) ;
#149 = EDGE_CURVE ( 'NONE', #55, #49, #89, .T. ) ;
#150 = APPROVAL ( #300, 'UNSPECIFIED' ) ;
#151 = COORDINATED_UNIVERSAL_TIME_OFFSET ( 5, 0, .BEHIND. ) ;
#152 = ORIENTED_EDGE ( 'NONE', *, *, #11, .F. ) ;
#153 = CARTESIAN_POINT ( 'NONE',  ( -5.000000000000000900, 0.0000000000000000000, 5.000000000000000000 ) ) ;
#154 = DIRECTION ( 'NONE',  ( 0.7071067811865474600, -0.7071067811865474600, 0.0000000000000000000 ) ) ;
#155 = AXIS2_PLACEMENT_3D ( 'NONE', #146, #290, #160 ) ;
#156 = VECTOR ( 'NONE', #171, 1000.000000000000000 ) ;
#157 = LINE ( 'NONE', #63, #185 ) ;
#158 = LINE ( 'NONE', #28, #243 ) ;
#159 = PRODUCT_DEFINITION_SHAPE ( 'NONE', 'NONE',  #136 ) ;
#160 = DIRECTION ( 'NONE',  ( 0.0000000000000000000, -0.0000000000000000000, 1.000000000000000000 ) ) ;
#161 = CARTESIAN_POINT ( 'NONE',  ( 4.999999999999999100, 0.0000000000000000000, 5.000000000000000000 ) ) ;
#162 = PLANE ( 'NONE',  #126 ) ;
#163 = EDGE_LOOP ( 'NONE', ( #2, #94, #187 ) ) ;
#164 = DIRECTION ( 'NONE',  ( 1.000000000000000000, 0.0000000000000000000, 0.0000000000000000000 ) ) ;
#165 = EDGE_CURVE ( 'NONE', #292, #319, #77, .T. ) ;
#166 = DIRECTION ( 'NONE',  ( 1.000000000000000000, 0.0000000000000000000, 0.0000000000000000000 ) ) ;
#167 = CARTESIAN_POINT ( 'NONE',  ( 4.999999999999999100, 4.999999999999999100, 5.000000000000000000 ) ) ;
#168 = COORDINATED_UNIVERSAL_TIME_OFFSET ( 5, 0, .BEHIND. ) ;
#169 = VECTOR ( 'NONE', #68, 1000.000000000000000 ) ;
#170 = CC_DESIGN_APPROVAL ( #150, ( #136 ) ) ;
#171 = DIRECTION ( 'NONE',  ( 1.000000000000000000, 0.0000000000000000000, 0.0000000000000000000 ) ) ;
#172 = APPROVAL_ROLE ( '' ) ;
#173 = VECTOR ( 'NONE', #297, 1000.000000000000000 ) ;
#174 = CARTESIAN_POINT ( 'NONE',  ( -5.000000000000000900, 0.0000000000000000000, 5.000000000000000000 ) ) ;
#175 = FACE_OUTER_BOUND ( 'NONE', #114, .T. ) ;
#176 =( NAMED_UNIT ( * ) PLANE_ANGLE_UNIT ( ) SI_UNIT ( $, .RADIAN. ) );
#177 = EDGE_LOOP ( 'NONE', ( #184, #14, #268, #298 ) ) ;
#178 = MANIFOLD_SOLID_BREP ( 'Boss-Extrude2', #201 ) ;
#179 = LINE ( 'NONE', #133, #274 ) ;
#180 = DIRECTION ( 'NONE',  ( 1.000000000000000000, 0.0000000000000000000, 0.0000000000000000000 ) ) ;
#181 = DIRECTION ( 'NONE',  ( -0.0000000000000000000, -0.0000000000000000000, -1.000000000000000000 ) ) ;
#182 = PERSON_AND_ORGANIZATION_ROLE ( 'classification_officer' ) ;
#183 = CARTESIAN_POINT ( 'NONE',  ( -5.000000000000000900, -5.000000000000000900, 5.000000000000000000 ) ) ;
#184 = ORIENTED_EDGE ( 'NONE', *, *, #219, .T. ) ;
#185 = VECTOR ( 'NONE', #87, 1000.000000000000000 ) ;
#186 = FACE_OUTER_BOUND ( 'NONE', #86, .T. ) ;
#187 = ORIENTED_EDGE ( 'NONE', *, *, #165, .F. ) ;
#188 = EDGE_CURVE ( 'NONE', #319, #236, #9, .T. ) ;
#189 = CARTESIAN_POINT ( 'NONE',  ( -5.000000000000000900, 4.999999999999999100, -5.000000000000000000 ) ) ;
#190 = PERSON_AND_ORGANIZATION ( #69, #193 ) ;
#191 = CARTESIAN_POINT ( 'NONE',  ( 0.0000000000000000000, -5.000000000000000900, 5.000000000000000000 ) ) ;
#192 = CC_DESIGN_PERSON_AND_ORGANIZATION_ASSIGNMENT ( #211, #76, ( #136 ) ) ;
#193 = ORGANIZATION ( 'UNSPECIFIED', 'UNSPECIFIED', '' ) ;
#194 = DIRECTION ( 'NONE',  ( 0.7071067811865474600, -0.7071067811865474600, 0.0000000000000000000 ) ) ;
#195 = PERSON_AND_ORGANIZATION_ROLE ( 'creator' ) ;
#196 = EDGE_LOOP ( 'NONE', ( #197, #229, #54, #207 ) ) ;
#197 = ORIENTED_EDGE ( 'NONE', *, *, #149, .F. ) ;
#198 = DIRECTION ( 'NONE',  ( -0.0000000000000000000, 0.0000000000000000000, 1.000000000000000000 ) ) ;
#199 =( NAMED_UNIT ( * ) SI_UNIT ( $, .STERADIAN. ) SOLID_ANGLE_UNIT ( ) );
#200 = AXIS2_PLACEMENT_3D ( 'NONE', #153, #148, #310 ) ;
#201 = CLOSED_SHELL ( 'NONE', ( #42, #4, #78, #57, #8 ) ) ;
#202 = DESIGN_CONTEXT ( 'detailed design', #205, 'design' ) ;
#203 = VECTOR ( 'NONE', #217, 1000.000000000000000 ) ;
#204 = EDGE_CURVE ( 'NONE', #261, #292, #107, .T. ) ;
#205 = APPLICATION_CONTEXT ( 'configuration controlled 3d designs of mechanical parts and assemblies' ) ;
#206 = CARTESIAN_POINT ( 'NONE',  ( 0.0000000000000000000, 4.999999999999999100, 5.000000000000000000 ) ) ;
#207 = ORIENTED_EDGE ( 'NONE', *, *, #84, .T. ) ;
#208 = CC_DESIGN_DATE_AND_TIME_ASSIGNMENT ( #250, #249, ( #136 ) ) ;
#209 = VECTOR ( 'NONE', #194, 1000.000000000000100 ) ;
#210 = CALENDAR_DATE ( 2017, 26, 4 ) ;
#211 = PERSON_AND_ORGANIZATION ( #69, #193 ) ;
#212 = DIRECTION ( 'NONE',  ( 1.000000000000000000, 0.0000000000000000000, 0.0000000000000000000 ) ) ;
#213 = DIRECTION ( 'NONE',  ( -0.0000000000000000000, -0.0000000000000000000, -1.000000000000000000 ) ) ;
#214 = DATE_AND_TIME ( #101, #124 ) ;
#215 = PERSON_AND_ORGANIZATION ( #69, #193 ) ;
#216 = DIRECTION ( 'NONE',  ( -0.0000000000000000000, 0.0000000000000000000, 1.000000000000000000 ) ) ;
#217 = DIRECTION ( 'NONE',  ( 0.0000000000000000000, 1.000000000000000000, -0.0000000000000000000 ) ) ;
#218 = LINE ( 'NONE', #206, #272 ) ;
#219 = EDGE_CURVE ( 'NONE', #55, #236, #157, .T. ) ;
#220 = APPROVAL_ROLE ( '' ) ;
#221 = CLOSED_SHELL ( 'NONE', ( #85, #74, #31, #12, #59 ) ) ;
#222 = PLANE ( 'NONE',  #288 ) ;
#223 = ORIENTED_EDGE ( 'NONE', *, *, #313, .T. ) ;
#224 = VECTOR ( 'NONE', #137, 1000.000000000000000 ) ;
#225 = PRODUCT_DEFINITION_FORMATION_WITH_SPECIFIED_SOURCE ( 'ANY', '', #273, .NOT_KNOWN. ) ;
#226 = VECTOR ( 'NONE', #181, 1000.000000000000000 ) ;
#227 = CARTESIAN_POINT ( 'NONE',  ( -9.199760500100243800E-016, -9.199760500100243800E-016, -5.000000000000000000 ) ) ;
#228 = AXIS2_PLACEMENT_3D ( 'NONE', #19, #38, #166 ) ;
#229 = ORIENTED_EDGE ( 'NONE', *, *, #102, .F. ) ;
#230 = FACE_OUTER_BOUND ( 'NONE', #177, .T. ) ;
#231 = CARTESIAN_POINT ( 'NONE',  ( -5.000000000000000900, 4.999999999999999100, -5.000000000000000000 ) ) ;
#232 = VECTOR ( 'NONE', #106, 1000.000000000000000 ) ;
#233 = EDGE_CURVE ( 'NONE', #295, #80, #158, .T. ) ;
#234 = DIRECTION ( 'NONE',  ( -0.0000000000000000000, 0.0000000000000000000, 1.000000000000000000 ) ) ;
#235 = PLANE ( 'NONE',  #3 ) ;
#236 = VERTEX_POINT ( 'NONE', #120 ) ;
#237 = ORIENTED_EDGE ( 'NONE', *, *, #219, .F. ) ;
#238 = CALENDAR_DATE ( 2017, 26, 4 ) ;
#239 = APPROVAL ( #88, 'UNSPECIFIED' ) ;
#240 = PLANE ( 'NONE',  #200 ) ;
#241 = LINE ( 'NONE', #22, #279 ) ;
#242 = PERSON_AND_ORGANIZATION ( #69, #193 ) ;
#243 = VECTOR ( 'NONE', #265, 1000.000000000000100 ) ;
#244 = ORIENTED_EDGE ( 'NONE', *, *, #263, .T. ) ;
#245 = DIRECTION ( 'NONE',  ( 0.7071067811865475700, 0.7071067811865475700, -0.0000000000000000000 ) ) ;
#246 = VECTOR ( 'NONE', #52, 1000.000000000000000 ) ;
#247 = PERSON_AND_ORGANIZATION_ROLE ( 'design_owner' ) ;
#248 = EDGE_CURVE ( 'NONE', #73, #34, #241, .T. ) ;
#249 = DATE_TIME_ROLE ( 'creation_date' ) ;
#250 = DATE_AND_TIME ( #23, #305 ) ;
#251 = VERTEX_POINT ( 'NONE', #48 ) ;
#252 = APPLICATION_PROTOCOL_DEFINITION ( 'international standard', 'config_control_design', 1994, #205 ) ;
#253 = CC_DESIGN_APPROVAL ( #239, ( #225 ) ) ;
#254 = ORIENTED_EDGE ( 'NONE', *, *, #116, .T. ) ;
#255 = ADVANCED_BREP_SHAPE_REPRESENTATION ( 'Web Model 47777_48577', ( #178, #282, #109 ), #20 ) ;
#256 = LINE ( 'NONE', #147, #173 ) ;
#257 = AXIS2_PLACEMENT_3D ( 'NONE', #296, #198, #262 ) ;
#258 = DATE_AND_TIME ( #93, #95 ) ;
#259 = CARTESIAN_POINT ( 'NONE',  ( 0.0000000000000000000, -5.000000000000000900, 5.000000000000000000 ) ) ;
#260 = CARTESIAN_POINT ( 'NONE',  ( 0.0000000000000000000, 0.0000000000000000000, 0.0000000000000000000 ) ) ;
#261 = VERTEX_POINT ( 'NONE', #183 ) ;
#262 = DIRECTION ( 'NONE',  ( 1.000000000000000000, 0.0000000000000000000, 0.0000000000000000000 ) ) ;
#263 = EDGE_CURVE ( 'NONE', #73, #295, #256, .T. ) ;
#264 = UNCERTAINTY_MEASURE_WITH_UNIT (LENGTH_MEASURE( 1.000000000000000100E-005 ), #129, 'distance_accuracy_value', 'NONE');
#265 = DIRECTION ( 'NONE',  ( 0.7071067811865474600, -0.7071067811865474600, 0.0000000000000000000 ) ) ;
#266 = ORIENTED_EDGE ( 'NONE', *, *, #51, .T. ) ;
#267 = CC_DESIGN_PERSON_AND_ORGANIZATION_ASSIGNMENT ( #190, #195, ( #225 ) ) ;
#268 = ORIENTED_EDGE ( 'NONE', *, *, #277, .F. ) ;
#269 = CARTESIAN_POINT ( 'NONE',  ( 4.999999999999999100, 0.0000000000000000000, 5.000000000000000000 ) ) ;
#270 = ORIENTED_EDGE ( 'NONE', *, *, #233, .F. ) ;
#271 = VECTOR ( 'NONE', #213, 1000.000000000000000 ) ;
#272 = VECTOR ( 'NONE', #321, 1000.000000000000000 ) ;
#273 = PRODUCT ( 'Web Model 47777_48577', 'Web Model 47777_48577', '', ( #128 ) ) ;
#274 = VECTOR ( 'NONE', #164, 1000.000000000000000 ) ;
#275 = PLANE ( 'NONE',  #257 ) ;
#276 = COORDINATED_UNIVERSAL_TIME_OFFSET ( 5, 0, .BEHIND. ) ;
#277 = EDGE_CURVE ( 'NONE', #261, #319, #104, .T. ) ;
#278 = PERSON_AND_ORGANIZATION ( #69, #193 ) ;
#279 = VECTOR ( 'NONE', #10, 1000.000000000000100 ) ;
#280 = DIRECTION ( 'NONE',  ( 0.0000000000000000000, -0.0000000000000000000, 1.000000000000000000 ) ) ;
#281 = CC_DESIGN_PERSON_AND_ORGANIZATION_ASSIGNMENT ( #215, #72, ( #225 ) ) ;
#282 = MANIFOLD_SOLID_BREP ( 'Boss-Extrude3', #221 ) ;
#283 = PLANE ( 'NONE',  #36 ) ;
#284 = APPROVAL_DATE_TIME ( #214, #150 ) ;
#285 = DIRECTION ( 'NONE',  ( -0.7071067811865474600, 0.7071067811865474600, 0.0000000000000000000 ) ) ;
#286 = APPROVAL_PERSON_ORGANIZATION ( #99, #27, #24 ) ;
#287 = ORIENTED_EDGE ( 'NONE', *, *, #84, .F. ) ;
#288 = AXIS2_PLACEMENT_3D ( 'NONE', #161, #91, #44 ) ;
#289 = PLANE ( 'NONE',  #58 ) ;
#290 = DIRECTION ( 'NONE',  ( 0.0000000000000000000, 1.000000000000000000, 0.0000000000000000000 ) ) ;
#291 = ORIENTED_EDGE ( 'NONE', *, *, #51, .F. ) ;
#292 = VERTEX_POINT ( 'NONE', #130 ) ;
#293 = ORIENTED_EDGE ( 'NONE', *, *, #263, .F. ) ;
#294 = EDGE_CURVE ( 'NONE', #80, #251, #309, .T. ) ;
#295 = VERTEX_POINT ( 'NONE', #231 ) ;
#296 = CARTESIAN_POINT ( 'NONE',  ( 0.0000000000000000000, 0.0000000000000000000, -5.000000000000000000 ) ) ;
#297 = DIRECTION ( 'NONE',  ( -0.0000000000000000000, -0.0000000000000000000, -1.000000000000000000 ) ) ;
#298 = ORIENTED_EDGE ( 'NONE', *, *, #102, .T. ) ;
#299 = LINE ( 'NONE', #142, #224 ) ;
#300 = APPROVAL_STATUS ( 'not_yet_approved' ) ;
#301 = SECURITY_CLASSIFICATION ( '', '', #43 ) ;
#302 = CARTESIAN_POINT ( 'NONE',  ( -5.000000000000000900, 4.999999999999999100, 5.000000000000000000 ) ) ;
#303 = LOCAL_TIME ( 12, 34, 34.00000000000000000, #276 ) ;
#304 = DIRECTION ( 'NONE',  ( 0.7071067811865475700, 0.7071067811865475700, -0.0000000000000000000 ) ) ;
#305 = LOCAL_TIME ( 12, 34, 34.00000000000000000, #98 ) ;
#306 = DATE_AND_TIME ( #210, #83 ) ;
#307 = LINE ( 'NONE', #227, #25 ) ;
#308 = FACE_OUTER_BOUND ( 'NONE', #108, .T. ) ;
#309 = LINE ( 'NONE', #145, #144 ) ;
#310 = DIRECTION ( 'NONE',  ( 0.0000000000000000000, 0.0000000000000000000, 1.000000000000000000 ) ) ;
#311 = FACE_OUTER_BOUND ( 'NONE', #163, .T. ) ;
#312 = FACE_OUTER_BOUND ( 'NONE', #134, .T. ) ;
#313 = EDGE_CURVE ( 'NONE', #70, #251, #299, .T. ) ;
#314 = CARTESIAN_POINT ( 'NONE',  ( 4.999999999999999100, -5.000000000000000900, -5.000000000000000000 ) ) ;
#315 = FACE_OUTER_BOUND ( 'NONE', #115, .T. ) ;
#316 = DIRECTION ( 'NONE',  ( 0.0000000000000000000, 0.0000000000000000000, 1.000000000000000000 ) ) ;
#317 = CC_DESIGN_PERSON_AND_ORGANIZATION_ASSIGNMENT ( #242, #182, ( #301 ) ) ;
#318 = CARTESIAN_POINT ( 'NONE',  ( -9.199760500100243800E-016, -9.199760500100243800E-016, 5.000000000000000000 ) ) ;
#319 = VERTEX_POINT ( 'NONE', #122 ) ;
#320 = CARTESIAN_POINT ( 'NONE',  ( 0.0000000000000000000, 0.0000000000000000000, -5.000000000000000000 ) ) ;
#321 = DIRECTION ( 'NONE',  ( 1.000000000000000000, 0.0000000000000000000, 0.0000000000000000000 ) ) ;
ENDSEC;
END-ISO-10303-21;
