ISO-10303-21;
HEADER;
FILE_DESCRIPTION (( 'STEP AP214' ),
    '1' );
FILE_NAME ('3494-E0W.STEP',
    '2010-12-06T18:29:22',
    ( 'Admin' ),
    ( 'Thorlabs, Inc.' ),
    'SwSTEP 2.0',
    'SolidWorks 2009',
    '' );
FILE_SCHEMA (( 'AUTOMOTIVE_DESIGN' ));
ENDSEC;

DATA;
#1 = ADVANCED_FACE ( 'NONE', ( #139 ), #192, .F. ) ;
#2 = EDGE_CURVE ( 'NONE', #30, #56, #177, .T. ) ;
#3 = ADVANCED_FACE ( 'NONE', ( #123 ), #87, .T. ) ;
#4 = EDGE_LOOP ( 'NONE', ( #58, #60, #59 ) ) ;
#5 = EDGE_CURVE ( 'NONE', #43, #15, #94, .T. ) ;
#6 = ORIENTED_EDGE ( 'NONE', *, *, #81, .F. ) ;
#7 = ORIENTED_EDGE ( 'NONE', *, *, #5, .F. ) ;
#8 = ORIENTED_EDGE ( 'NONE', *, *, #22, .T. ) ;
#9 = ORIENTED_EDGE ( 'NONE', *, *, #45, .F. ) ;
#10 = ORIENTED_EDGE ( 'NONE', *, *, #28, .T. ) ;
#11 =( LENGTH_UNIT ( ) NAMED_UNIT ( * ) SI_UNIT ( .MILLI., .METRE. ) );
#12 =( NAMED_UNIT ( * ) PLANE_ANGLE_UNIT ( ) SI_UNIT ( $, .RADIAN. ) );
#13 = UNCERTAINTY_MEASURE_WITH_UNIT (LENGTH_MEASURE( 1.000000000000000100E-005 ), #11, 'distance_accuracy_value', 'NONE');
#14 =( NAMED_UNIT ( * ) SI_UNIT ( $, .STERADIAN. ) SOLID_ANGLE_UNIT ( ) );
#15 = VERTEX_POINT ( 'NONE', #95 ) ;
#16 = ORIENTED_EDGE ( 'NONE', *, *, #17, .T. ) ;
#17 = EDGE_CURVE ( 'NONE', #18, #15, #155, .T. ) ;
#18 = VERTEX_POINT ( 'NONE', #151 ) ;
#19 = VERTEX_POINT ( 'NONE', #150 ) ;
#20 = VERTEX_POINT ( 'NONE', #149 ) ;
#21 = VERTEX_POINT ( 'NONE', #99 ) ;
#22 = EDGE_CURVE ( 'NONE', #18, #20, #97, .T. ) ;
#23 = ORIENTED_EDGE ( 'NONE', *, *, #22, .F. ) ;
#24 = ADVANCED_FACE ( 'NONE', ( #98 ), #138, .T. ) ;
#25 = ORIENTED_EDGE ( 'NONE', *, *, #35, .F. ) ;
#26 = ORIENTED_EDGE ( 'NONE', *, *, #81, .T. ) ;
#27 = ORIENTED_EDGE ( 'NONE', *, *, #80, .T. ) ;
#28 = EDGE_CURVE ( 'NONE', #21, #15, #126, .T. ) ;
#29 = VERTEX_POINT ( 'NONE', #163 ) ;
#30 = VERTEX_POINT ( 'NONE', #162 ) ;
#31 = ORIENTED_EDGE ( 'NONE', *, *, #33, .T. ) ;
#32 = ORIENTED_EDGE ( 'NONE', *, *, #39, .F. ) ;
#33 = EDGE_CURVE ( 'NONE', #19, #43, #161, .T. ) ;
#34 = ORIENTED_EDGE ( 'NONE', *, *, #28, .F. ) ;
#35 = EDGE_CURVE ( 'NONE', #21, #19, #195, .T. ) ;
#36 = ADVANCED_FACE ( 'NONE', ( #196 ), #228, .T. ) ;
#37 = EDGE_LOOP ( 'NONE', ( #42, #31, #32, #34 ) ) ;
#38 = ORIENTED_EDGE ( 'NONE', *, *, #39, .T. ) ;
#39 = EDGE_CURVE ( 'NONE', #15, #43, #205, .T. ) ;
#40 = ORIENTED_EDGE ( 'NONE', *, *, #41, .F. ) ;
#41 = EDGE_CURVE ( 'NONE', #20, #43, #232, .T. ) ;
#42 = ORIENTED_EDGE ( 'NONE', *, *, #35, .T. ) ;
#43 = VERTEX_POINT ( 'NONE', #242 ) ;
#44 = ADVANCED_FACE ( 'NONE', ( #241 ), #211, .T. ) ;
#45 = EDGE_CURVE ( 'NONE', #29, #56, #210, .T. ) ;
#46 = ORIENTED_EDGE ( 'NONE', *, *, #71, .T. ) ;
#47 = EDGE_LOOP ( 'NONE', ( #70, #54, #10, #7 ) ) ;
#48 = ORIENTED_EDGE ( 'NONE', *, *, #80, .F. ) ;
#49 = ORIENTED_EDGE ( 'NONE', *, *, #50, .F. ) ;
#50 = EDGE_CURVE ( 'NONE', #19, #21, #234, .T. ) ;
#51 = ORIENTED_EDGE ( 'NONE', *, *, #71, .F. ) ;
#52 = ORIENTED_EDGE ( 'NONE', *, *, #41, .T. ) ;
#53 = EDGE_LOOP ( 'NONE', ( #9, #48, #69 ) ) ;
#54 = ORIENTED_EDGE ( 'NONE', *, *, #50, .T. ) ;
#55 = ORIENTED_EDGE ( 'NONE', *, *, #73, .T. ) ;
#56 = VERTEX_POINT ( 'NONE', #222 ) ;
#57 = ADVANCED_FACE ( 'NONE', ( #221 ), #290, .F. ) ;
#58 = ORIENTED_EDGE ( 'NONE', *, *, #61, .F. ) ;
#59 = ORIENTED_EDGE ( 'NONE', *, *, #2, .F. ) ;
#60 = ORIENTED_EDGE ( 'NONE', *, *, #45, .T. ) ;
#61 = EDGE_CURVE ( 'NONE', #29, #30, #312, .T. ) ;
#62 = EDGE_LOOP ( 'NONE', ( #6, #76, #46, #49 ) ) ;
#63 = ADVANCED_FACE ( 'NONE', ( #307 ), #299, .T. ) ;
#64 = ORIENTED_EDGE ( 'NONE', *, *, #17, .F. ) ;
#65 = ORIENTED_EDGE ( 'NONE', *, *, #5, .T. ) ;
#66 = ADVANCED_FACE ( 'NONE', ( #334 ), #282, .T. ) ;
#67 = EDGE_LOOP ( 'NONE', ( #55, #8 ) ) ;
#68 = CLOSED_SHELL ( 'NONE', ( #24, #36, #78, #1, #57, #3, #44, #63, #66 ) ) ;
#69 = ORIENTED_EDGE ( 'NONE', *, *, #2, .T. ) ;
#70 = ORIENTED_EDGE ( 'NONE', *, *, #33, .F. ) ;
#71 = EDGE_CURVE ( 'NONE', #30, #21, #267, .T. ) ;
#72 = ORIENTED_EDGE ( 'NONE', *, *, #73, .F. ) ;
#73 = EDGE_CURVE ( 'NONE', #20, #18, #327, .T. ) ;
#74 = EDGE_LOOP ( 'NONE', ( #23, #16, #38, #40 ) ) ;
#75 = EDGE_LOOP ( 'NONE', ( #64, #72, #52, #65 ) ) ;
#76 = ORIENTED_EDGE ( 'NONE', *, *, #61, .T. ) ;
#77 = MANIFOLD_SOLID_BREP ( 'NONE', #68 ) ;
#78 = ADVANCED_FACE ( 'NONE', ( #279 ), #380, .T. ) ;
#79 = EDGE_LOOP ( 'NONE', ( #27, #26, #25, #51 ) ) ;
#80 = EDGE_CURVE ( 'NONE', #30, #29, #387, .T. ) ;
#81 = EDGE_CURVE ( 'NONE', #29, #19, #388, .T. ) ;
#82 =( NAMED_UNIT ( * ) PLANE_ANGLE_UNIT ( ) SI_UNIT ( $, .RADIAN. ) );
#83 = SURFACE_STYLE_USAGE ( .BOTH. , #190 ) ;
#84 = UNCERTAINTY_MEASURE_WITH_UNIT (LENGTH_MEASURE( 1.000000000000000100E-005 ), #120, 'distance_accuracy_value', 'NONE');
#85 = STYLED_ITEM ( 'NONE', ( #122 ), #1 ) ;
#86 = AXIS2_PLACEMENT_3D ( 'NONE', #188, #187, #96 ) ;
#87 = CONICAL_SURFACE ( 'NONE', #86, 6.350000000000000500, 0.7853981633974420600 ) ;
#88 =( LENGTH_UNIT ( ) NAMED_UNIT ( * ) SI_UNIT ( .MILLI., .METRE. ) );
#89 = MECHANICAL_DESIGN_GEOMETRIC_PRESENTATION_REPRESENTATION (  '', ( #181 ), #189 ) ;
#90 = DIRECTION ( 'NONE',  ( 0.0000000000000000000, 1.000000000000000000, 3.073328992872296900E-016 ) ) ;
#91 = DIRECTION ( 'NONE',  ( -0.0000000000000000000, 3.061616997868383100E-016, -1.000000000000000000 ) ) ;
#92 = CARTESIAN_POINT ( 'NONE',  ( 0.0000000000000000000, 1.503064821850642000E-015, -0.8585786437626911100 ) ) ;
#93 = AXIS2_PLACEMENT_3D ( 'NONE', #92, #91, #90 ) ;
#94 = CIRCLE ( 'NONE', #93, 6.349999999999998800 ) ;
#95 = CARTESIAN_POINT ( 'NONE',  ( 0.0000000000000000000, 6.350000000000000500, -0.8585786437626891100 ) ) ;
#96 = DIRECTION ( 'NONE',  ( 0.0000000000000000000, 1.000000000000000000, 2.731847993664262700E-016 ) ) ;
#97 = CIRCLE ( 'NONE', #107, 6.208578643762689500 ) ;
#98 = FACE_OUTER_BOUND ( 'NONE', #74, .T. ) ;
#99 = CARTESIAN_POINT ( 'NONE',  ( 0.0000000000000000000, 6.350000000000000500, 3.269355475813809300 ) ) ;
#100 = SURFACE_STYLE_FILL_AREA ( #101 ) ;
#101 = FILL_AREA_STYLE ('',( #102 ) ) ;
#102 = FILL_AREA_STYLE_COLOUR ( '', #103 ) ;
#103 = COLOUR_RGB ( '',0.7529411764705882200, 0.7529411764705882200, 0.7529411764705882200 ) ;
#104 = DIRECTION ( 'NONE',  ( 0.0000000000000000000, 1.000000000000000000, 3.143334444888611200E-016 ) ) ;
#105 = DIRECTION ( 'NONE',  ( -0.0000000000000000000, 3.061616997868383100E-016, -1.000000000000000000 ) ) ;
#106 = CARTESIAN_POINT ( 'NONE',  ( 0.0000000000000000000, 1.546362624662416700E-015, -1.000000000000000700 ) ) ;
#107 = AXIS2_PLACEMENT_3D ( 'NONE', #106, #105, #104 ) ;
#108 = SURFACE_STYLE_USAGE ( .BOTH. , #109 ) ;
#109 = SURFACE_SIDE_STYLE ('',( #110 ) ) ;
#110 = SURFACE_STYLE_FILL_AREA ( #111 ) ;
#111 = FILL_AREA_STYLE ('',( #143 ) ) ;
#112 = FILL_AREA_STYLE_COLOUR ( '', #113 ) ;
#113 = COLOUR_RGB ( '',0.7529411764705882200, 0.7529411764705882200, 0.7529411764705882200 ) ;
#114 = DIRECTION ( 'NONE',  ( 0.0000000000000000000, 1.000000000000000000, 3.771137991253928600E-016 ) ) ;
#115 = DIRECTION ( 'NONE',  ( 1.000000000000000000, 0.0000000000000000000, -0.0000000000000000000 ) ) ;
#116 = CARTESIAN_POINT ( 'NONE',  ( 0.0000000000000000000, 9.340392250887397800E-016, 10.20000000000000100 ) ) ;
#117 =( GEOMETRIC_REPRESENTATION_CONTEXT ( 3 ) GLOBAL_UNCERTAINTY_ASSIGNED_CONTEXT ( ( #156 ) ) GLOBAL_UNIT_ASSIGNED_CONTEXT ( ( #142, #141, #157 ) ) REPRESENTATION_CONTEXT ( 'NONE', 'WORKASPACE' ) );
#118 = SURFACE_STYLE_FILL_AREA ( #119 ) ;
#119 = FILL_AREA_STYLE ('',( #112 ) ) ;
#120 =( LENGTH_UNIT ( ) NAMED_UNIT ( * ) SI_UNIT ( .MILLI., .METRE. ) );
#121 =( NAMED_UNIT ( * ) SI_UNIT ( $, .STERADIAN. ) SOLID_ANGLE_UNIT ( ) );
#122 = PRESENTATION_STYLE_ASSIGNMENT (( #83 ) ) ;
#123 = FACE_OUTER_BOUND ( 'NONE', #62, .T. ) ;
#124 = VECTOR ( 'NONE', #164, 1000.000000000000000 ) ;
#125 = CARTESIAN_POINT ( 'NONE',  ( 0.0000000000000000000, 6.350000000000001400, -0.9999999999999981100 ) ) ;
#126 = LINE ( 'NONE', #125, #124 ) ;
#127 = DIRECTION ( 'NONE',  ( 0.0000000000000000000, -1.000000000000000000, -3.143334444888611200E-016 ) ) ;
#128 = DIRECTION ( 'NONE',  ( 0.0000000000000000000, -3.061616997868383100E-016, 1.000000000000000000 ) ) ;
#129 = CARTESIAN_POINT ( 'NONE',  ( 0.0000000000000000000, 1.546362624662416700E-015, -1.000000000000000700 ) ) ;
#130 = AXIS2_PLACEMENT_3D ( 'NONE', #129, #128, #127 ) ;
#131 = MECHANICAL_DESIGN_GEOMETRIC_PRESENTATION_REPRESENTATION (  '', ( #133 ), #117 ) ;
#132 = PRESENTATION_LAYER_ASSIGNMENT (  '', '', ( #133 ) ) ;
#133 = STYLED_ITEM ( 'NONE', ( #134 ), #24 ) ;
#134 = PRESENTATION_STYLE_ASSIGNMENT (( #135 ) ) ;
#135 = SURFACE_STYLE_USAGE ( .BOTH. , #136 ) ;
#136 = SURFACE_SIDE_STYLE ('',( #100 ) ) ;
#137 = PRESENTATION_LAYER_ASSIGNMENT (  '', '', ( #85 ) ) ;
#138 = CONICAL_SURFACE ( 'NONE', #130, 6.208578643762689500, 0.7853981633974487200 ) ;
#139 = FACE_OUTER_BOUND ( 'NONE', #4, .T. ) ;
#140 =( GEOMETRIC_REPRESENTATION_CONTEXT ( 3 ) GLOBAL_UNCERTAINTY_ASSIGNED_CONTEXT ( ( #84 ) ) GLOBAL_UNIT_ASSIGNED_CONTEXT ( ( #120, #179, #121 ) ) REPRESENTATION_CONTEXT ( 'NONE', 'WORKASPACE' ) );
#141 =( NAMED_UNIT ( * ) PLANE_ANGLE_UNIT ( ) SI_UNIT ( $, .RADIAN. ) );
#142 =( LENGTH_UNIT ( ) NAMED_UNIT ( * ) SI_UNIT ( .MILLI., .METRE. ) );
#143 = FILL_AREA_STYLE_COLOUR ( '', #144 ) ;
#144 = COLOUR_RGB ( '',0.7529411764705882200, 0.7529411764705882200, 0.7529411764705882200 ) ;
#145 = DIRECTION ( 'NONE',  ( 0.0000000000000000000, 0.0000000000000000000, 1.000000000000000000 ) ) ;
#146 = DIRECTION ( 'NONE',  ( -1.000000000000000000, 0.0000000000000000000, 0.0000000000000000000 ) ) ;
#147 = CARTESIAN_POINT ( 'NONE',  ( 0.0000000000000000000, 9.340392250887397800E-016, 10.20000000000000100 ) ) ;
#148 = AXIS2_PLACEMENT_3D ( 'NONE', #147, #146, #145 ) ;
#149 = CARTESIAN_POINT ( 'NONE',  ( 0.0000000000000000000, -6.208578643762687800, -1.000000000000002700 ) ) ;
#150 = CARTESIAN_POINT ( 'NONE',  ( 7.776250346772096400E-016, -6.350000000000000500, 3.269355475813805700 ) ) ;
#151 = CARTESIAN_POINT ( 'NONE',  ( 7.689657601064900300E-016, 6.208578643762691300, -0.9999999999999986700 ) ) ;
#152 = DIRECTION ( 'NONE',  ( 8.659274570719357900E-017, 0.7071067811865475700, 0.7071067811865474600 ) ) ;
#153 = VECTOR ( 'NONE', #152, 1000.000000000000000 ) ;
#154 = CARTESIAN_POINT ( 'NONE',  ( 7.603064855357707200E-016, 6.208578643762691300, -0.9999999999999986700 ) ) ;
#155 = LINE ( 'NONE', #154, #153 ) ;
#156 = UNCERTAINTY_MEASURE_WITH_UNIT (LENGTH_MEASURE( 1.000000000000000100E-005 ), #142, 'distance_accuracy_value', 'NONE');
#157 =( NAMED_UNIT ( * ) SI_UNIT ( $, .STERADIAN. ) SOLID_ANGLE_UNIT ( ) );
#158 = MECHANICAL_DESIGN_GEOMETRIC_PRESENTATION_REPRESENTATION (  '', ( #85 ), #140 ) ;
#159 =( NAMED_UNIT ( * ) PLANE_ANGLE_UNIT ( ) SI_UNIT ( $, .RADIAN. ) );
#160 =( LENGTH_UNIT ( ) NAMED_UNIT ( * ) SI_UNIT ( .MILLI., .METRE. ) );
#161 = LINE ( 'NONE', #199, #198 ) ;
#162 = CARTESIAN_POINT ( 'NONE',  ( 0.0000000000000000000, 6.208578643762692200, 3.410776832051121600 ) ) ;
#163 = CARTESIAN_POINT ( 'NONE',  ( 7.603064855357710200E-016, -6.208578643762688600, 3.410776832051118000 ) ) ;
#164 = DIRECTION ( 'NONE',  ( -0.0000000000000000000, 3.061616997868383100E-016, -1.000000000000000000 ) ) ;
#165 = MECHANICAL_DESIGN_GEOMETRIC_PRESENTATION_REPRESENTATION (  '', ( #167 ), #183 ) ;
#166 = PRESENTATION_LAYER_ASSIGNMENT (  '', '', ( #167 ) ) ;
#167 = STYLED_ITEM ( 'NONE', ( #168 ), #36 ) ;
#168 = PRESENTATION_STYLE_ASSIGNMENT (( #169 ) ) ;
#169 = SURFACE_STYLE_USAGE ( .BOTH. , #170 ) ;
#170 = SURFACE_SIDE_STYLE ('',( #171 ) ) ;
#171 = SURFACE_STYLE_FILL_AREA ( #172 ) ;
#172 = FILL_AREA_STYLE ('',( #173 ) ) ;
#173 = FILL_AREA_STYLE_COLOUR ( '', #174 ) ;
#174 = COLOUR_RGB ( '',0.7529411764705882200, 0.7529411764705882200, 0.7529411764705882200 ) ;
#175 = DIRECTION ( 'NONE',  ( 0.0000000000000000000, 1.000000000000000000, 2.731847993664262700E-016 ) ) ;
#176 = DIRECTION ( 'NONE',  ( -0.0000000000000000000, 3.061616997868383100E-016, -1.000000000000000000 ) ) ;
#177 = CIRCLE ( 'NONE', #148, 9.199999999999999300 ) ;
#178 =( NAMED_UNIT ( * ) SI_UNIT ( $, .STERADIAN. ) SOLID_ANGLE_UNIT ( ) );
#179 =( NAMED_UNIT ( * ) PLANE_ANGLE_UNIT ( ) SI_UNIT ( $, .RADIAN. ) );
#180 = PRESENTATION_LAYER_ASSIGNMENT (  '', '', ( #181 ) ) ;
#181 = STYLED_ITEM ( 'NONE', ( #182 ), #3 ) ;
#182 = PRESENTATION_STYLE_ASSIGNMENT (( #108 ) ) ;
#183 =( GEOMETRIC_REPRESENTATION_CONTEXT ( 3 ) GLOBAL_UNCERTAINTY_ASSIGNED_CONTEXT ( ( #184 ) ) GLOBAL_UNIT_ASSIGNED_CONTEXT ( ( #160, #159, #185 ) ) REPRESENTATION_CONTEXT ( 'NONE', 'WORKASPACE' ) );
#184 = UNCERTAINTY_MEASURE_WITH_UNIT (LENGTH_MEASURE( 1.000000000000000100E-005 ), #160, 'distance_accuracy_value', 'NONE');
#185 =( NAMED_UNIT ( * ) SI_UNIT ( $, .STERADIAN. ) SOLID_ANGLE_UNIT ( ) );
#186 = UNCERTAINTY_MEASURE_WITH_UNIT (LENGTH_MEASURE( 1.000000000000000100E-005 ), #88, 'distance_accuracy_value', 'NONE');
#187 = DIRECTION ( 'NONE',  ( -0.0000000000000000000, 3.061616997868383100E-016, -1.000000000000000000 ) ) ;
#188 = CARTESIAN_POINT ( 'NONE',  ( 0.0000000000000000000, 2.392494951930153700E-016, 3.269355475813807500 ) ) ;
#189 =( GEOMETRIC_REPRESENTATION_CONTEXT ( 3 ) GLOBAL_UNCERTAINTY_ASSIGNED_CONTEXT ( ( #186 ) ) GLOBAL_UNIT_ASSIGNED_CONTEXT ( ( #88, #82, #178 ) ) REPRESENTATION_CONTEXT ( 'NONE', 'WORKASPACE' ) );
#190 = SURFACE_SIDE_STYLE ('',( #118 ) ) ;
#191 = AXIS2_PLACEMENT_3D ( 'NONE', #116, #115, #114 ) ;
#192 = SPHERICAL_SURFACE ( 'NONE', #191, 9.199999999999999300 ) ;
#193 = CARTESIAN_POINT ( 'NONE',  ( 0.0000000000000000000, 2.392494951930153700E-016, 3.269355475813807500 ) ) ;
#194 = AXIS2_PLACEMENT_3D ( 'NONE', #193, #176, #175 ) ;
#195 = CIRCLE ( 'NONE', #194, 6.350000000000000500 ) ;
#196 = FACE_OUTER_BOUND ( 'NONE', #37, .T. ) ;
#197 = DIRECTION ( 'NONE',  ( -0.0000000000000000000, 3.061616997868383100E-016, -1.000000000000000000 ) ) ;
#198 = VECTOR ( 'NONE', #197, 1000.000000000000000 ) ;
#199 = CARTESIAN_POINT ( 'NONE',  ( 7.776250346772095400E-016, -6.349999999999997900, -1.000000000000002000 ) ) ;
#200 =( NAMED_UNIT ( * ) PLANE_ANGLE_UNIT ( ) SI_UNIT ( $, .RADIAN. ) );
#201 = SURFACE_STYLE_FILL_AREA ( #202 ) ;
#202 = FILL_AREA_STYLE ('',( #203 ) ) ;
#203 = FILL_AREA_STYLE_COLOUR ( '', #204 ) ;
#204 = COLOUR_RGB ( '',0.7529411764705882200, 0.7529411764705882200, 0.7529411764705882200 ) ;
#205 = CIRCLE ( 'NONE', #208, 6.349999999999998800 ) ;
#206 = DIRECTION ( 'NONE',  ( -0.0000000000000000000, 3.061616997868383100E-016, -1.000000000000000000 ) ) ;
#207 = CARTESIAN_POINT ( 'NONE',  ( 0.0000000000000000000, 1.546362624662416500E-015, -1.000000000000000000 ) ) ;
#208 = AXIS2_PLACEMENT_3D ( 'NONE', #254, #244, #243 ) ;
#209 = AXIS2_PLACEMENT_3D ( 'NONE', #251, #250, #249 ) ;
#210 = CIRCLE ( 'NONE', #248, 9.199999999999999300 ) ;
#211 = CYLINDRICAL_SURFACE ( 'NONE', #209, 6.349999999999999600 ) ;
#212 = MECHANICAL_DESIGN_GEOMETRIC_PRESENTATION_REPRESENTATION (  '', ( #214 ), #297 ) ;
#213 = PRESENTATION_LAYER_ASSIGNMENT (  '', '', ( #214 ) ) ;
#214 = STYLED_ITEM ( 'NONE', ( #215 ), #57 ) ;
#215 = PRESENTATION_STYLE_ASSIGNMENT (( #216 ) ) ;
#216 = SURFACE_STYLE_USAGE ( .BOTH. , #217 ) ;
#217 = SURFACE_SIDE_STYLE ('',( #218 ) ) ;
#218 = SURFACE_STYLE_FILL_AREA ( #219 ) ;
#219 = FILL_AREA_STYLE ('',( #235 ) ) ;
#220 = COLOUR_RGB ( '',0.7529411764705882200, 0.7529411764705882200, 0.7529411764705882200 ) ;
#221 = FACE_OUTER_BOUND ( 'NONE', #53, .T. ) ;
#222 = CARTESIAN_POINT ( 'NONE',  ( 0.0000000000000000000, 4.314045785885945900E-015, 1.000000000000000900 ) ) ;
#223 = DIRECTION ( 'NONE',  ( 0.0000000000000000000, 1.000000000000000000, 2.731847993664262700E-016 ) ) ;
#224 = DIRECTION ( 'NONE',  ( -0.0000000000000000000, 3.061616997868383100E-016, -1.000000000000000000 ) ) ;
#225 = CARTESIAN_POINT ( 'NONE',  ( 0.0000000000000000000, 2.392494951930153700E-016, 3.269355475813807500 ) ) ;
#226 =( LENGTH_UNIT ( ) NAMED_UNIT ( * ) SI_UNIT ( .MILLI., .METRE. ) );
#227 = AXIS2_PLACEMENT_3D ( 'NONE', #207, #206, #255 ) ;
#228 = CYLINDRICAL_SURFACE ( 'NONE', #227, 6.349999999999999600 ) ;
#229 = DIRECTION ( 'NONE',  ( 0.0000000000000000000, -0.7071067811865480200, 0.7071067811865470200 ) ) ;
#230 = VECTOR ( 'NONE', #229, 1000.000000000000000 ) ;
#231 = CARTESIAN_POINT ( 'NONE',  ( 0.0000000000000000000, -6.208578643762687800, -1.000000000000002700 ) ) ;
#232 = LINE ( 'NONE', #231, #230 ) ;
#233 = AXIS2_PLACEMENT_3D ( 'NONE', #225, #224, #223 ) ;
#234 = CIRCLE ( 'NONE', #233, 6.350000000000000500 ) ;
#235 = FILL_AREA_STYLE_COLOUR ( '', #220 ) ;
#236 = DIRECTION ( 'NONE',  ( -1.224606353822377300E-016, 1.000000000000000000, 0.0000000000000000000 ) ) ;
#237 = STYLED_ITEM ( 'NONE', ( #238 ), #44 ) ;
#238 = PRESENTATION_STYLE_ASSIGNMENT (( #239 ) ) ;
#239 = SURFACE_STYLE_USAGE ( .BOTH. , #240 ) ;
#240 = SURFACE_SIDE_STYLE ('',( #201 ) ) ;
#241 = FACE_OUTER_BOUND ( 'NONE', #47, .T. ) ;
#242 = CARTESIAN_POINT ( 'NONE',  ( 7.776250346772094400E-016, -6.349999999999997000, -0.8585786437626929900 ) ) ;
#243 = DIRECTION ( 'NONE',  ( 0.0000000000000000000, 1.000000000000000000, 3.073328992872296900E-016 ) ) ;
#244 = DIRECTION ( 'NONE',  ( -0.0000000000000000000, 3.061616997868383100E-016, -1.000000000000000000 ) ) ;
#245 =( GEOMETRIC_REPRESENTATION_CONTEXT ( 3 ) GLOBAL_UNCERTAINTY_ASSIGNED_CONTEXT ( ( #252 ) ) GLOBAL_UNIT_ASSIGNED_CONTEXT ( ( #226, #200, #253 ) ) REPRESENTATION_CONTEXT ( 'NONE', 'WORKASPACE' ) );
#246 = DIRECTION ( 'NONE',  ( 1.000000000000000000, 1.224606353822377300E-016, 3.749275628560213600E-032 ) ) ;
#247 = CARTESIAN_POINT ( 'NONE',  ( 0.0000000000000000000, 9.340392250887397800E-016, 10.20000000000000100 ) ) ;
#248 = AXIS2_PLACEMENT_3D ( 'NONE', #247, #246, #236 ) ;
#249 = DIRECTION ( 'NONE',  ( 0.0000000000000000000, 1.000000000000000000, 3.073328992872296400E-016 ) ) ;
#250 = DIRECTION ( 'NONE',  ( -0.0000000000000000000, 3.061616997868383100E-016, -1.000000000000000000 ) ) ;
#251 = CARTESIAN_POINT ( 'NONE',  ( 0.0000000000000000000, 1.546362624662416500E-015, -1.000000000000000000 ) ) ;
#252 = UNCERTAINTY_MEASURE_WITH_UNIT (LENGTH_MEASURE( 1.000000000000000100E-005 ), #226, 'distance_accuracy_value', 'NONE');
#253 =( NAMED_UNIT ( * ) SI_UNIT ( $, .STERADIAN. ) SOLID_ANGLE_UNIT ( ) );
#254 = CARTESIAN_POINT ( 'NONE',  ( 0.0000000000000000000, 1.503064821850642000E-015, -0.8585786437626911100 ) ) ;
#255 = DIRECTION ( 'NONE',  ( 0.0000000000000000000, 1.000000000000000000, 3.073328992872296400E-016 ) ) ;
#256 = MECHANICAL_DESIGN_GEOMETRIC_PRESENTATION_REPRESENTATION (  '', ( #237 ), #245 ) ;
#257 = PRESENTATION_LAYER_ASSIGNMENT (  '', '', ( #237 ) ) ;
#258 = DIRECTION ( 'NONE',  ( 0.0000000000000000000, 1.000000000000000000, 2.794075062123208900E-016 ) ) ;
#259 = DIRECTION ( 'NONE',  ( -0.0000000000000000000, 3.061616997868383100E-016, -1.000000000000000000 ) ) ;
#260 = FILL_AREA_STYLE_COLOUR ( '', #322 ) ;
#261 = DIRECTION ( 'NONE',  ( 0.0000000000000000000, 0.7071067811865434600, -0.7071067811865516800 ) ) ;
#262 = VECTOR ( 'NONE', #261, 999.9999999999998900 ) ;
#263 = CARTESIAN_POINT ( 'NONE',  ( 0.0000000000000000000, 6.350000000000000500, 3.269355475813809300 ) ) ;
#264 = DIRECTION ( 'NONE',  ( 0.0000000000000000000, 1.000000000000000000, 3.061616997868383100E-016 ) ) ;
#265 = DIRECTION ( 'NONE',  ( -0.0000000000000000000, 3.061616997868383100E-016, -1.000000000000000000 ) ) ;
#266 = AXIS2_PLACEMENT_3D ( 'NONE', #281, #265, #264 ) ;
#267 = LINE ( 'NONE', #263, #262 ) ;
#268 =( LENGTH_UNIT ( ) NAMED_UNIT ( * ) SI_UNIT ( .MILLI., .METRE. ) );
#269 = MECHANICAL_DESIGN_GEOMETRIC_PRESENTATION_REPRESENTATION (  '', ( #271 ), #347 ) ;
#270 = PRESENTATION_LAYER_ASSIGNMENT (  '', '', ( #271 ) ) ;
#271 = STYLED_ITEM ( 'NONE', ( #272 ), #78 ) ;
#272 = PRESENTATION_STYLE_ASSIGNMENT (( #273 ) ) ;
#273 = SURFACE_STYLE_USAGE ( .BOTH. , #274 ) ;
#274 = SURFACE_SIDE_STYLE ('',( #275 ) ) ;
#275 = SURFACE_STYLE_FILL_AREA ( #276 ) ;
#276 = FILL_AREA_STYLE ('',( #277 ) ) ;
#277 = FILL_AREA_STYLE_COLOUR ( '', #278 ) ;
#278 = COLOUR_RGB ( '',0.7529411764705882200, 0.7529411764705882200, 0.7529411764705882200 ) ;
#279 = FACE_OUTER_BOUND ( 'NONE', #79, .T. ) ;
#280 =( GEOMETRIC_REPRESENTATION_CONTEXT ( 3 ) GLOBAL_UNCERTAINTY_ASSIGNED_CONTEXT ( ( #343 ) ) GLOBAL_UNIT_ASSIGNED_CONTEXT ( ( #346, #345, #344 ) ) REPRESENTATION_CONTEXT ( 'NONE', 'WORKASPACE' ) );
#281 = CARTESIAN_POINT ( 'NONE',  ( 0.0000000000000000000, 1.546362624662416500E-015, -1.000000000000000200 ) ) ;
#282 = PLANE ( 'NONE',  #266 ) ;
#283 =( GEOMETRIC_REPRESENTATION_CONTEXT ( 3 ) GLOBAL_UNCERTAINTY_ASSIGNED_CONTEXT ( ( #284 ) ) GLOBAL_UNIT_ASSIGNED_CONTEXT ( ( #335, #289, #288 ) ) REPRESENTATION_CONTEXT ( 'NONE', 'WORKASPACE' ) );
#284 = UNCERTAINTY_MEASURE_WITH_UNIT (LENGTH_MEASURE( 1.000000000000000100E-005 ), #335, 'distance_accuracy_value', 'NONE');
#285 = DIRECTION ( 'NONE',  ( 0.0000000000000000000, 1.000000000000000000, 3.771137991253928600E-016 ) ) ;
#286 = DIRECTION ( 'NONE',  ( 1.000000000000000000, 0.0000000000000000000, -0.0000000000000000000 ) ) ;
#287 = CARTESIAN_POINT ( 'NONE',  ( 0.0000000000000000000, 9.340392250887397800E-016, 10.20000000000000100 ) ) ;
#288 =( NAMED_UNIT ( * ) SI_UNIT ( $, .STERADIAN. ) SOLID_ANGLE_UNIT ( ) );
#289 =( NAMED_UNIT ( * ) PLANE_ANGLE_UNIT ( ) SI_UNIT ( $, .RADIAN. ) );
#290 = SPHERICAL_SURFACE ( 'NONE', #342, 9.199999999999999300 ) ;
#291 = FILL_AREA_STYLE ('',( #292 ) ) ;
#292 = FILL_AREA_STYLE_COLOUR ( '', #293 ) ;
#293 = COLOUR_RGB ( '',0.7529411764705882200, 0.7529411764705882200, 0.7529411764705882200 ) ;
#294 = SURFACE_STYLE_USAGE ( .BOTH. , #295 ) ;
#295 = SURFACE_SIDE_STYLE ('',( #296 ) ) ;
#296 = SURFACE_STYLE_FILL_AREA ( #291 ) ;
#297 =( GEOMETRIC_REPRESENTATION_CONTEXT ( 3 ) GLOBAL_UNCERTAINTY_ASSIGNED_CONTEXT ( ( #13 ) ) GLOBAL_UNIT_ASSIGNED_CONTEXT ( ( #11, #12, #14 ) ) REPRESENTATION_CONTEXT ( 'NONE', 'WORKASPACE' ) );
#298 =( NAMED_UNIT ( * ) PLANE_ANGLE_UNIT ( ) SI_UNIT ( $, .RADIAN. ) );
#299 = CONICAL_SURFACE ( 'NONE', #301, 6.208578643762689500, 0.7853981633974487200 ) ;
#300 = CARTESIAN_POINT ( 'NONE',  ( 0.0000000000000000000, 1.546362624662416700E-015, -1.000000000000000700 ) ) ;
#301 = AXIS2_PLACEMENT_3D ( 'NONE', #300, #332, #331 ) ;
#302 = MECHANICAL_DESIGN_GEOMETRIC_PRESENTATION_REPRESENTATION (  '', ( #304 ), #310 ) ;
#303 = PRESENTATION_LAYER_ASSIGNMENT (  '', '', ( #304 ) ) ;
#304 = STYLED_ITEM ( 'NONE', ( #305 ), #63 ) ;
#305 = PRESENTATION_STYLE_ASSIGNMENT (( #294 ) ) ;
#306 = CARTESIAN_POINT ( 'NONE',  ( 0.0000000000000000000, 1.959516923812401200E-016, 3.410776832051118900 ) ) ;
#307 = FACE_OUTER_BOUND ( 'NONE', #75, .T. ) ;
#308 = UNCERTAINTY_MEASURE_WITH_UNIT (LENGTH_MEASURE( 1.000000000000000100E-005 ), #313, 'distance_accuracy_value', 'NONE');
#309 =( NAMED_UNIT ( * ) SI_UNIT ( $, .STERADIAN. ) SOLID_ANGLE_UNIT ( ) );
#310 =( GEOMETRIC_REPRESENTATION_CONTEXT ( 3 ) GLOBAL_UNCERTAINTY_ASSIGNED_CONTEXT ( ( #308 ) ) GLOBAL_UNIT_ASSIGNED_CONTEXT ( ( #313, #298, #309 ) ) REPRESENTATION_CONTEXT ( 'NONE', 'WORKASPACE' ) );
#311 = AXIS2_PLACEMENT_3D ( 'NONE', #306, #259, #258 ) ;
#312 = CIRCLE ( 'NONE', #311, 6.208578643762691300 ) ;
#313 =( LENGTH_UNIT ( ) NAMED_UNIT ( * ) SI_UNIT ( .MILLI., .METRE. ) );
#314 = MECHANICAL_DESIGN_GEOMETRIC_PRESENTATION_REPRESENTATION (  '', ( #316 ), #280 ) ;
#315 = PRESENTATION_LAYER_ASSIGNMENT (  '', '', ( #316 ) ) ;
#316 = STYLED_ITEM ( 'NONE', ( #317 ), #77 ) ;
#317 = PRESENTATION_STYLE_ASSIGNMENT (( #318 ) ) ;
#318 = SURFACE_STYLE_USAGE ( .BOTH. , #319 ) ;
#319 = SURFACE_SIDE_STYLE ('',( #320 ) ) ;
#320 = SURFACE_STYLE_FILL_AREA ( #321 ) ;
#321 = FILL_AREA_STYLE ('',( #260 ) ) ;
#322 = COLOUR_RGB ( '',0.7960784313725489700, 0.8235294117647058400, 0.9372549019607843100 ) ;
#323 = DIRECTION ( 'NONE',  ( 0.0000000000000000000, 1.000000000000000000, 3.143334444888611200E-016 ) ) ;
#324 = DIRECTION ( 'NONE',  ( -0.0000000000000000000, 3.061616997868383100E-016, -1.000000000000000000 ) ) ;
#325 = CARTESIAN_POINT ( 'NONE',  ( 0.0000000000000000000, 1.546362624662416700E-015, -1.000000000000000700 ) ) ;
#326 = AXIS2_PLACEMENT_3D ( 'NONE', #325, #324, #323 ) ;
#327 = CIRCLE ( 'NONE', #326, 6.208578643762689500 ) ;
#328 = SURFACE_STYLE_FILL_AREA ( #329 ) ;
#329 = FILL_AREA_STYLE ('',( #330 ) ) ;
#330 = FILL_AREA_STYLE_COLOUR ( '', #333 ) ;
#331 = DIRECTION ( 'NONE',  ( 0.0000000000000000000, -1.000000000000000000, -3.143334444888611200E-016 ) ) ;
#332 = DIRECTION ( 'NONE',  ( 0.0000000000000000000, -3.061616997868383100E-016, 1.000000000000000000 ) ) ;
#333 = COLOUR_RGB ( '',0.7529411764705882200, 0.7529411764705882200, 0.7529411764705882200 ) ;
#334 = FACE_OUTER_BOUND ( 'NONE', #67, .T. ) ;
#335 =( LENGTH_UNIT ( ) NAMED_UNIT ( * ) SI_UNIT ( .MILLI., .METRE. ) );
#336 = MECHANICAL_DESIGN_GEOMETRIC_PRESENTATION_REPRESENTATION (  '', ( #338 ), #283 ) ;
#337 = PRESENTATION_LAYER_ASSIGNMENT (  '', '', ( #338 ) ) ;
#338 = STYLED_ITEM ( 'NONE', ( #339 ), #66 ) ;
#339 = PRESENTATION_STYLE_ASSIGNMENT (( #340 ) ) ;
#340 = SURFACE_STYLE_USAGE ( .BOTH. , #341 ) ;
#341 = SURFACE_SIDE_STYLE ('',( #328 ) ) ;
#342 = AXIS2_PLACEMENT_3D ( 'NONE', #287, #286, #285 ) ;
#343 = UNCERTAINTY_MEASURE_WITH_UNIT (LENGTH_MEASURE( 1.000000000000000100E-005 ), #346, 'distance_accuracy_value', 'NONE');
#344 =( NAMED_UNIT ( * ) SI_UNIT ( $, .STERADIAN. ) SOLID_ANGLE_UNIT ( ) );
#345 =( NAMED_UNIT ( * ) PLANE_ANGLE_UNIT ( ) SI_UNIT ( $, .RADIAN. ) );
#346 =( LENGTH_UNIT ( ) NAMED_UNIT ( * ) SI_UNIT ( .MILLI., .METRE. ) );
#347 =( GEOMETRIC_REPRESENTATION_CONTEXT ( 3 ) GLOBAL_UNCERTAINTY_ASSIGNED_CONTEXT ( ( #389 ) ) GLOBAL_UNIT_ASSIGNED_CONTEXT ( ( #268, #372, #371 ) ) REPRESENTATION_CONTEXT ( 'NONE', 'WORKASPACE' ) );
#348 = DIRECTION ( 'NONE',  ( 0.0000000000000000000, 0.0000000000000000000, 1.000000000000000000 ) ) ;
#349 = CARTESIAN_POINT ( 'NONE',  ( 0.0000000000000000000, 0.0000000000000000000, 0.0000000000000000000 ) ) ;
#350 =( GEOMETRIC_REPRESENTATION_CONTEXT ( 3 ) GLOBAL_UNCERTAINTY_ASSIGNED_CONTEXT ( ( #351 ) ) GLOBAL_UNIT_ASSIGNED_CONTEXT ( ( #356, #355, #352 ) ) REPRESENTATION_CONTEXT ( 'NONE', 'WORKASPACE' ) );
#351 = UNCERTAINTY_MEASURE_WITH_UNIT (LENGTH_MEASURE( 1.000000000000000100E-005 ), #356, 'distance_accuracy_value', 'NONE');
#352 =( NAMED_UNIT ( * ) SI_UNIT ( $, .STERADIAN. ) SOLID_ANGLE_UNIT ( ) );
#353 = DIRECTION ( 'NONE',  ( 1.000000000000000000, 0.0000000000000000000, 0.0000000000000000000 ) ) ;
#354 = AXIS2_PLACEMENT_3D ( 'NONE', #379, #382, #381 ) ;
#355 =( NAMED_UNIT ( * ) PLANE_ANGLE_UNIT ( ) SI_UNIT ( $, .RADIAN. ) );
#356 =( LENGTH_UNIT ( ) NAMED_UNIT ( * ) SI_UNIT ( .MILLI., .METRE. ) );
#357 = MECHANICAL_DESIGN_GEOMETRIC_PRESENTATION_REPRESENTATION (  '', ( #359 ), #350 ) ;
#358 = PRESENTATION_LAYER_ASSIGNMENT (  '', '', ( #359 ) ) ;
#359 = STYLED_ITEM ( 'NONE', ( #360 ), #377 ) ;
#360 = PRESENTATION_STYLE_ASSIGNMENT (( #361 ) ) ;
#361 = SURFACE_STYLE_USAGE ( .BOTH. , #362 ) ;
#362 = SURFACE_SIDE_STYLE ('',( #363 ) ) ;
#363 = SURFACE_STYLE_FILL_AREA ( #364 ) ;
#364 = FILL_AREA_STYLE ('',( #365 ) ) ;
#365 = FILL_AREA_STYLE_COLOUR ( '', #366 ) ;
#366 = COLOUR_RGB ( '',0.7960784313725489700, 0.8235294117647058400, 0.9372549019607843100 ) ;
#367 = AXIS2_PLACEMENT_3D ( 'NONE', #349, #348, #353 ) ;
#368 = DIRECTION ( 'NONE',  ( 8.659274570719302400E-017, -0.7071067811865430200, -0.7071067811865521200 ) ) ;
#369 = VECTOR ( 'NONE', #368, 999.9999999999998900 ) ;
#370 = CARTESIAN_POINT ( 'NONE',  ( 7.776250346772096400E-016, -6.350000000000000500, 3.269355475813805700 ) ) ;
#371 =( NAMED_UNIT ( * ) SI_UNIT ( $, .STERADIAN. ) SOLID_ANGLE_UNIT ( ) );
#372 =( NAMED_UNIT ( * ) PLANE_ANGLE_UNIT ( ) SI_UNIT ( $, .RADIAN. ) );
#373 = DIRECTION ( 'NONE',  ( 0.0000000000000000000, 1.000000000000000000, 2.794075062123208900E-016 ) ) ;
#374 = DIRECTION ( 'NONE',  ( -0.0000000000000000000, 3.061616997868383100E-016, -1.000000000000000000 ) ) ;
#375 = AXIS2_PLACEMENT_3D ( 'NONE', #386, #374, #373 ) ;
#376 = UNCERTAINTY_MEASURE_WITH_UNIT (LENGTH_MEASURE( 1.000000000000000100E-005 ), #385, 'distance_accuracy_value', 'NONE');
#377 = ADVANCED_BREP_SHAPE_REPRESENTATION ( '3494-E0W', ( #77, #367 ), #378 ) ;
#378 =( GEOMETRIC_REPRESENTATION_CONTEXT ( 3 ) GLOBAL_UNCERTAINTY_ASSIGNED_CONTEXT ( ( #376 ) ) GLOBAL_UNIT_ASSIGNED_CONTEXT ( ( #385, #384, #383 ) ) REPRESENTATION_CONTEXT ( 'NONE', 'WORKASPACE' ) );
#379 = CARTESIAN_POINT ( 'NONE',  ( 0.0000000000000000000, 2.392494951930153700E-016, 3.269355475813807500 ) ) ;
#380 = CONICAL_SURFACE ( 'NONE', #354, 6.350000000000000500, 0.7853981633974420600 ) ;
#381 = DIRECTION ( 'NONE',  ( 0.0000000000000000000, 1.000000000000000000, 2.731847993664262700E-016 ) ) ;
#382 = DIRECTION ( 'NONE',  ( -0.0000000000000000000, 3.061616997868383100E-016, -1.000000000000000000 ) ) ;
#383 =( NAMED_UNIT ( * ) SI_UNIT ( $, .STERADIAN. ) SOLID_ANGLE_UNIT ( ) );
#384 =( NAMED_UNIT ( * ) PLANE_ANGLE_UNIT ( ) SI_UNIT ( $, .RADIAN. ) );
#385 =( LENGTH_UNIT ( ) NAMED_UNIT ( * ) SI_UNIT ( .MILLI., .METRE. ) );
#386 = CARTESIAN_POINT ( 'NONE',  ( 0.0000000000000000000, 1.959516923812401200E-016, 3.410776832051118900 ) ) ;
#387 = CIRCLE ( 'NONE', #375, 6.208578643762691300 ) ;
#388 = LINE ( 'NONE', #370, #369 ) ;
#389 = UNCERTAINTY_MEASURE_WITH_UNIT (LENGTH_MEASURE( 1.000000000000000100E-005 ), #268, 'distance_accuracy_value', 'NONE');
#390 = PRODUCT ( '3494-E0W', '3494-E0W', '', ( #391 ) ) ;
#391 = PRODUCT_CONTEXT ( 'NONE', #393, 'mechanical' ) ;
#392 = APPLICATION_PROTOCOL_DEFINITION ( 'draft international standard', 'automotive_design', 1998, #393 ) ;
#393 = APPLICATION_CONTEXT ( 'automotive_design' ) ;
#394 = PRODUCT_DEFINITION_SHAPE ( 'NONE', 'NONE',  #397 ) ;
#395 = PRODUCT_RELATED_PRODUCT_CATEGORY ( 'part', '', ( #390 ) ) ;
#396 = PRODUCT_DEFINITION_FORMATION_WITH_SPECIFIED_SOURCE ( 'ANY', '', #390, .NOT_KNOWN. ) ;
#397 = PRODUCT_DEFINITION ( 'UNKNOWN', '', #396, #398 ) ;
#398 = PRODUCT_DEFINITION_CONTEXT ( 'detailed design', #400, 'design' ) ;
#399 = APPLICATION_PROTOCOL_DEFINITION ( 'draft international standard', 'automotive_design', 1998, #400 ) ;
#400 = APPLICATION_CONTEXT ( 'automotive_design' ) ;
#401 = SHAPE_DEFINITION_REPRESENTATION ( #394, #377 ) ;
ENDSEC;
END-ISO-10303-21;
