ISO-10303-21;
HEADER;
FILE_DESCRIPTION (( 'STEP AP203' ),
    '1' );
FILE_NAME ('Web Model 43848_43848.step',
    '2018-03-12T20:50:25',
    ( '' ),
    ( '' ),
    'SwSTEP 2.0',
    'SolidWorks 2016',
    '' );
FILE_SCHEMA (( 'CONFIG_CONTROL_DESIGN' ));
ENDSEC;

DATA;
#1 = PLANE ( 'NONE',  #15 ) ;
#2 = VERTEX_POINT ( 'NONE', #140 ) ;
#3 = CC_DESIGN_PERSON_AND_ORGANIZATION_ASSIGNMENT ( #216, #170, ( #187 ) ) ;
#4 = FACE_OUTER_BOUND ( 'NONE', #220, .T. ) ;
#5 = EDGE_LOOP ( 'NONE', ( #80, #104, #61, #110 ) ) ;
#6 = AXIS2_PLACEMENT_3D ( 'NONE', #137, #67, #193 ) ;
#7 = ORIENTED_EDGE ( 'NONE', *, *, #32, .F. ) ;
#8 = VECTOR ( 'NONE', #179, 1000.000000000000000 ) ;
#9 = DIRECTION ( 'NONE',  ( 0.0000000000000000000, 0.0000000000000000000, -1.000000000000000000 ) ) ;
#10 = DIRECTION ( 'NONE',  ( 1.000000000000000000, 0.0000000000000000000, 0.0000000000000000000 ) ) ;
#11 = ORIENTED_EDGE ( 'NONE', *, *, #131, .T. ) ;
#12 = DIRECTION ( 'NONE',  ( -1.000000000000000000, -0.0000000000000000000, -0.0000000000000000000 ) ) ;
#13 = CARTESIAN_POINT ( 'NONE',  ( 4.750000000000000000, 12.49999999999999300, 12.50000000000000000 ) ) ;
#14 = LINE ( 'NONE', #48, #88 ) ;
#15 = AXIS2_PLACEMENT_3D ( 'NONE', #127, #94, #197 ) ;
#16 = DIRECTION ( 'NONE',  ( -1.000000000000000000, -0.0000000000000000000, -0.0000000000000000000 ) ) ;
#17 = DIRECTION ( 'NONE',  ( -1.000000000000000000, -0.0000000000000000000, -0.0000000000000000000 ) ) ;
#18 = APPROVAL_DATE_TIME ( #58, #28 ) ;
#19 = LINE ( 'NONE', #13, #8 ) ;
#20 = DIRECTION ( 'NONE',  ( -0.0000000000000000000, 1.000000000000000000, 0.0000000000000000000 ) ) ;
#21 = CARTESIAN_POINT ( 'NONE',  ( 0.0000000000000000000, 0.0000000000000000000, 0.0000000000000000000 ) ) ;
#22 = PERSON_AND_ORGANIZATION_ROLE ( 'design_supplier' ) ;
#23 = PRODUCT_DEFINITION_SHAPE ( 'NONE', 'NONE',  #205 ) ;
#24 = APPLICATION_PROTOCOL_DEFINITION ( 'international standard', 'config_control_design', 1994, #222 ) ;
#25 = APPROVAL_STATUS ( 'not_yet_approved' ) ;
#26 =( GEOMETRIC_REPRESENTATION_CONTEXT ( 3 ) GLOBAL_UNCERTAINTY_ASSIGNED_CONTEXT ( ( #224 ) ) GLOBAL_UNIT_ASSIGNED_CONTEXT ( ( #76, #111, #148 ) ) REPRESENTATION_CONTEXT ( 'NONE', 'WORKASPACE' ) );
#27 = APPROVAL_DATE_TIME ( #65, #163 ) ;
#28 = APPROVAL ( #25, 'UNSPECIFIED' ) ;
#29 = PERSON_AND_ORGANIZATION ( #235, #106 ) ;
#30 = ORIENTED_EDGE ( 'NONE', *, *, #169, .T. ) ;
#31 = VECTOR ( 'NONE', #178, 1000.000000000000000 ) ;
#32 = EDGE_CURVE ( 'NONE', #2, #162, #19, .T. ) ;
#33 = CALENDAR_DATE ( 2018, 12, 3 ) ;
#34 = VERTEX_POINT ( 'NONE', #69 ) ;
#35 = DIRECTION ( 'NONE',  ( 1.000000000000000000, 0.0000000000000000000, 0.0000000000000000000 ) ) ;
#36 = DIRECTION ( 'NONE',  ( 0.0000000000000000000, -1.000000000000000000, 0.0000000000000000000 ) ) ;
#37 = DIRECTION ( 'NONE',  ( 0.0000000000000000000, -1.000000000000000000, 0.0000000000000000000 ) ) ;
#38 = PERSON_AND_ORGANIZATION ( #235, #106 ) ;
#39 = CARTESIAN_POINT ( 'NONE',  ( -4.750000000000000000, 12.49999999999999300, 12.50000000000000000 ) ) ;
#40 = PERSON_AND_ORGANIZATION ( #235, #106 ) ;
#41 = DIRECTION ( 'NONE',  ( 1.000000000000000000, 0.0000000000000000000, 0.0000000000000000000 ) ) ;
#42 = PERSON_AND_ORGANIZATION ( #235, #106 ) ;
#43 = EDGE_CURVE ( 'NONE', #162, #160, #14, .T. ) ;
#44 = LOCAL_TIME ( 16, 50, 25.00000000000000000, #150 ) ;
#45 = ORIENTED_EDGE ( 'NONE', *, *, #43, .T. ) ;
#46 = CC_DESIGN_SECURITY_CLASSIFICATION ( #187, ( #215 ) ) ;
#47 = COORDINATED_UNIVERSAL_TIME_OFFSET ( 5, 0, .BEHIND. ) ;
#48 = CARTESIAN_POINT ( 'NONE',  ( -4.750000000000000000, 12.49999999999999300, 12.50000000000000000 ) ) ;
#49 = VECTOR ( 'NONE', #36, 1000.000000000000000 ) ;
#50 = ORIENTED_EDGE ( 'NONE', *, *, #32, .T. ) ;
#51 = CARTESIAN_POINT ( 'NONE',  ( 4.750000000000000000, 12.50000000000000000, -12.50000000000000000 ) ) ;
#52 = EDGE_CURVE ( 'NONE', #123, #128, #175, .T. ) ;
#53 = CARTESIAN_POINT ( 'NONE',  ( 4.750000000000000000, 12.50000000000000000, -12.50000000000000000 ) ) ;
#54 = CALENDAR_DATE ( 2018, 12, 3 ) ;
#55 = VECTOR ( 'NONE', #57, 1000.000000000000000 ) ;
#56 = LINE ( 'NONE', #103, #98 ) ;
#57 = DIRECTION ( 'NONE',  ( -0.0000000000000000000, 1.000000000000000000, -0.0000000000000000000 ) ) ;
#58 = DATE_AND_TIME ( #134, #44 ) ;
#59 = APPROVAL_STATUS ( 'not_yet_approved' ) ;
#60 = SECURITY_CLASSIFICATION_LEVEL ( 'unclassified' ) ;
#61 = ORIENTED_EDGE ( 'NONE', *, *, #169, .F. ) ;
#62 = LINE ( 'NONE', #53, #55 ) ;
#63 = FACE_OUTER_BOUND ( 'NONE', #5, .T. ) ;
#64 = AXIS2_PLACEMENT_3D ( 'NONE', #89, #10, #214 ) ;
#65 = DATE_AND_TIME ( #33, #211 ) ;
#66 = ORIENTED_EDGE ( 'NONE', *, *, #99, .F. ) ;
#67 = DIRECTION ( 'NONE',  ( 1.000000000000000000, 0.0000000000000000000, 0.0000000000000000000 ) ) ;
#68 = ORIENTED_EDGE ( 'NONE', *, *, #144, .F. ) ;
#69 = CARTESIAN_POINT ( 'NONE',  ( 4.750000000000000000, 12.50000000000000000, -12.50000000000000000 ) ) ;
#70 = DIRECTION ( 'NONE',  ( 0.0000000000000000000, 0.0000000000000000000, -1.000000000000000000 ) ) ;
#71 = CARTESIAN_POINT ( 'NONE',  ( 4.750000000000000000, -12.50000000000000000, 12.50000000000000000 ) ) ;
#72 = DIRECTION ( 'NONE',  ( 0.0000000000000000000, -0.0000000000000000000, 1.000000000000000000 ) ) ;
#73 = PRODUCT_RELATED_PRODUCT_CATEGORY ( 'detail', '', ( #75 ) ) ;
#74 = CARTESIAN_POINT ( 'NONE',  ( -4.750000000000000000, -12.50000000000000000, 12.50000000000000000 ) ) ;
#75 = PRODUCT ( 'Web Model 43848_43848', 'Web Model 43848_43848', '', ( #171 ) ) ;
#76 =( LENGTH_UNIT ( ) NAMED_UNIT ( * ) SI_UNIT ( .MILLI., .METRE. ) );
#77 = PERSON_AND_ORGANIZATION_ROLE ( 'creator' ) ;
#78 = AXIS2_PLACEMENT_3D ( 'NONE', #21, #142, #41 ) ;
#79 = DATE_AND_TIME ( #81, #132 ) ;
#80 = ORIENTED_EDGE ( 'NONE', *, *, #99, .T. ) ;
#81 = CALENDAR_DATE ( 2018, 12, 3 ) ;
#82 = CC_DESIGN_APPROVAL ( #163, ( #215 ) ) ;
#83 = ORIENTED_EDGE ( 'NONE', *, *, #138, .F. ) ;
#84 = APPROVAL_PERSON_ORGANIZATION ( #146, #28, #221 ) ;
#85 = FACE_OUTER_BOUND ( 'NONE', #87, .T. ) ;
#86 = PLANE ( 'NONE',  #64 ) ;
#87 = EDGE_LOOP ( 'NONE', ( #180, #168, #30, #223 ) ) ;
#88 = VECTOR ( 'NONE', #37, 1000.000000000000000 ) ;
#89 = CARTESIAN_POINT ( 'NONE',  ( 4.750000000000000000, 0.0000000000000000000, 0.0000000000000000000 ) ) ;
#90 = PLANE ( 'NONE',  #184 ) ;
#91 = MANIFOLD_SOLID_BREP ( 'Boss-Extrude1', #130 ) ;
#92 = CARTESIAN_POINT ( 'NONE',  ( -4.750000000000000000, 12.49999999999999300, 12.50000000000000000 ) ) ;
#93 = ORIENTED_EDGE ( 'NONE', *, *, #43, .F. ) ;
#94 = DIRECTION ( 'NONE',  ( 0.0000000000000000000, -1.000000000000000000, -2.775557561562891400E-016 ) ) ;
#95 = FACE_OUTER_BOUND ( 'NONE', #118, .T. ) ;
#96 = PERSON_AND_ORGANIZATION_ROLE ( 'design_owner' ) ;
#97 = ORIENTED_EDGE ( 'NONE', *, *, #192, .T. ) ;
#98 = VECTOR ( 'NONE', #12, 1000.000000000000000 ) ;
#99 = EDGE_CURVE ( 'NONE', #206, #133, #126, .T. ) ;
#100 = ADVANCED_FACE ( 'NONE', ( #95 ), #194, .F. ) ;
#101 = APPROVAL_PERSON_ORGANIZATION ( #38, #163, #149 ) ;
#102 = LINE ( 'NONE', #217, #209 ) ;
#103 = CARTESIAN_POINT ( 'NONE',  ( 4.750000000000000000, -12.50000000000000000, -12.50000000000000000 ) ) ;
#104 = ORIENTED_EDGE ( 'NONE', *, *, #192, .F. ) ;
#105 = DIRECTION ( 'NONE',  ( 0.0000000000000000000, 0.0000000000000000000, -1.000000000000000000 ) ) ;
#106 = ORGANIZATION ( 'UNSPECIFIED', 'UNSPECIFIED', '' ) ;
#107 = CARTESIAN_POINT ( 'NONE',  ( 4.750000000000000000, 12.49999999999999300, 12.50000000000000000 ) ) ;
#108 = APPROVAL ( #153, 'UNSPECIFIED' ) ;
#109 = CARTESIAN_POINT ( 'NONE',  ( 4.750000000000000000, -12.50000000000000000, 12.50000000000000000 ) ) ;
#110 = ORIENTED_EDGE ( 'NONE', *, *, #138, .T. ) ;
#111 =( NAMED_UNIT ( * ) PLANE_ANGLE_UNIT ( ) SI_UNIT ( $, .RADIAN. ) );
#112 = APPLICATION_CONTEXT ( 'configuration controlled 3d designs of mechanical parts and assemblies' ) ;
#113 = APPROVAL_ROLE ( '' ) ;
#114 = ORIENTED_EDGE ( 'NONE', *, *, #188, .F. ) ;
#115 = VECTOR ( 'NONE', #147, 1000.000000000000000 ) ;
#116 = ORIENTED_EDGE ( 'NONE', *, *, #131, .F. ) ;
#117 = ADVANCED_FACE ( 'NONE', ( #63 ), #195, .F. ) ;
#118 = EDGE_LOOP ( 'NONE', ( #93, #154, #66, #116 ) ) ;
#119 = APPROVAL_PERSON_ORGANIZATION ( #42, #108, #113 ) ;
#120 = ADVANCED_FACE ( 'NONE', ( #85 ), #86, .T. ) ;
#121 = PERSON_AND_ORGANIZATION ( #235, #106 ) ;
#122 = CARTESIAN_POINT ( 'NONE',  ( 4.750000000000000000, 12.49999999999999300, 12.50000000000000000 ) ) ;
#123 = VERTEX_POINT ( 'NONE', #71 ) ;
#124 = DIRECTION ( 'NONE',  ( -1.000000000000000000, 0.0000000000000000000, -0.0000000000000000000 ) ) ;
#125 = CC_DESIGN_PERSON_AND_ORGANIZATION_ASSIGNMENT ( #40, #129, ( #205 ) ) ;
#126 = LINE ( 'NONE', #139, #31 ) ;
#127 = CARTESIAN_POINT ( 'NONE',  ( 4.750000000000000000, 12.49999999999999300, 12.50000000000000000 ) ) ;
#128 = VERTEX_POINT ( 'NONE', #230 ) ;
#129 = PERSON_AND_ORGANIZATION_ROLE ( 'creator' ) ;
#130 = CLOSED_SHELL ( 'NONE', ( #155, #189, #117, #191, #120, #100 ) ) ;
#131 = EDGE_CURVE ( 'NONE', #160, #206, #202, .T. ) ;
#132 = LOCAL_TIME ( 16, 50, 25.00000000000000000, #164 ) ;
#133 = VERTEX_POINT ( 'NONE', #231 ) ;
#134 = CALENDAR_DATE ( 2018, 12, 3 ) ;
#135 = CC_DESIGN_APPROVAL ( #28, ( #205 ) ) ;
#136 = VECTOR ( 'NONE', #199, 1000.000000000000000 ) ;
#137 = CARTESIAN_POINT ( 'NONE',  ( -4.750000000000000000, 0.0000000000000000000, 0.0000000000000000000 ) ) ;
#138 = EDGE_CURVE ( 'NONE', #128, #206, #56, .T. ) ;
#139 = CARTESIAN_POINT ( 'NONE',  ( -4.750000000000000000, 12.50000000000000000, -12.50000000000000000 ) ) ;
#140 = CARTESIAN_POINT ( 'NONE',  ( 4.750000000000000000, 12.49999999999999300, 12.50000000000000000 ) ) ;
#141 = CARTESIAN_POINT ( 'NONE',  ( -4.750000000000000000, -12.50000000000000000, -12.50000000000000000 ) ) ;
#142 = DIRECTION ( 'NONE',  ( 0.0000000000000000000, 0.0000000000000000000, 1.000000000000000000 ) ) ;
#143 = SHAPE_DEFINITION_REPRESENTATION ( #23, #185 ) ;
#144 = EDGE_CURVE ( 'NONE', #2, #123, #210, .T. ) ;
#145 = ORIENTED_EDGE ( 'NONE', *, *, #52, .F. ) ;
#146 = PERSON_AND_ORGANIZATION ( #235, #106 ) ;
#147 = DIRECTION ( 'NONE',  ( -0.0000000000000000000, -2.775557561562891400E-016, 1.000000000000000000 ) ) ;
#148 =( NAMED_UNIT ( * ) SI_UNIT ( $, .STERADIAN. ) SOLID_ANGLE_UNIT ( ) );
#149 = APPROVAL_ROLE ( '' ) ;
#150 = COORDINATED_UNIVERSAL_TIME_OFFSET ( 5, 0, .BEHIND. ) ;
#151 = DATE_TIME_ROLE ( 'creation_date' ) ;
#152 = CC_DESIGN_DATE_AND_TIME_ASSIGNMENT ( #79, #151, ( #205 ) ) ;
#153 = APPROVAL_STATUS ( 'not_yet_approved' ) ;
#154 = ORIENTED_EDGE ( 'NONE', *, *, #157, .F. ) ;
#155 = ADVANCED_FACE ( 'NONE', ( #218 ), #90, .F. ) ;
#156 = VECTOR ( 'NONE', #70, 1000.000000000000000 ) ;
#157 = EDGE_CURVE ( 'NONE', #133, #162, #234, .T. ) ;
#158 = AXIS2_PLACEMENT_3D ( 'NONE', #166, #20, #72 ) ;
#159 = COORDINATED_UNIVERSAL_TIME_OFFSET ( 5, 0, .BEHIND. ) ;
#160 = VERTEX_POINT ( 'NONE', #74 ) ;
#161 = CALENDAR_DATE ( 2018, 12, 3 ) ;
#162 = VERTEX_POINT ( 'NONE', #39 ) ;
#163 = APPROVAL ( #59, 'UNSPECIFIED' ) ;
#164 = COORDINATED_UNIVERSAL_TIME_OFFSET ( 5, 0, .BEHIND. ) ;
#165 = PLANE ( 'NONE',  #158 ) ;
#166 = CARTESIAN_POINT ( 'NONE',  ( 4.750000000000000000, -12.50000000000000000, 12.50000000000000000 ) ) ;
#167 = APPROVAL_DATE_TIME ( #219, #108 ) ;
#168 = ORIENTED_EDGE ( 'NONE', *, *, #52, .T. ) ;
#169 = EDGE_CURVE ( 'NONE', #128, #34, #62, .T. ) ;
#170 = PERSON_AND_ORGANIZATION_ROLE ( 'classification_officer' ) ;
#171 = MECHANICAL_CONTEXT ( 'NONE', #112, 'mechanical' ) ;
#172 = ORIENTED_EDGE ( 'NONE', *, *, #236, .F. ) ;
#173 = CC_DESIGN_PERSON_AND_ORGANIZATION_ASSIGNMENT ( #200, #77, ( #215 ) ) ;
#174 = LINE ( 'NONE', #196, #115 ) ;
#175 = LINE ( 'NONE', #181, #186 ) ;
#176 = DATE_AND_TIME ( #161, #208 ) ;
#177 = EDGE_LOOP ( 'NONE', ( #45, #172, #68, #50 ) ) ;
#178 = DIRECTION ( 'NONE',  ( -0.0000000000000000000, 1.000000000000000000, -0.0000000000000000000 ) ) ;
#179 = DIRECTION ( 'NONE',  ( -1.000000000000000000, -0.0000000000000000000, -0.0000000000000000000 ) ) ;
#180 = ORIENTED_EDGE ( 'NONE', *, *, #144, .T. ) ;
#181 = CARTESIAN_POINT ( 'NONE',  ( 4.750000000000000000, -12.50000000000000000, 12.50000000000000000 ) ) ;
#182 = CC_DESIGN_PERSON_AND_ORGANIZATION_ASSIGNMENT ( #121, #96, ( #75 ) ) ;
#183 = DIRECTION ( 'NONE',  ( -0.0000000000000000000, 0.0000000000000000000, 1.000000000000000000 ) ) ;
#184 = AXIS2_PLACEMENT_3D ( 'NONE', #107, #105, #124 ) ;
#185 = ADVANCED_BREP_SHAPE_REPRESENTATION ( 'Web Model 43848_43848', ( #91, #78 ), #26 ) ;
#186 = VECTOR ( 'NONE', #9, 1000.000000000000000 ) ;
#187 = SECURITY_CLASSIFICATION ( '', '', #60 ) ;
#188 = EDGE_CURVE ( 'NONE', #34, #2, #174, .T. ) ;
#189 = ADVANCED_FACE ( 'NONE', ( #4 ), #165, .F. ) ;
#190 = FACE_OUTER_BOUND ( 'NONE', #226, .T. ) ;
#191 = ADVANCED_FACE ( 'NONE', ( #190 ), #1, .F. ) ;
#192 = EDGE_CURVE ( 'NONE', #34, #133, #102, .T. ) ;
#193 = DIRECTION ( 'NONE',  ( 0.0000000000000000000, 0.0000000000000000000, -1.000000000000000000 ) ) ;
#194 = PLANE ( 'NONE',  #6 ) ;
#195 = PLANE ( 'NONE',  #203 ) ;
#196 = CARTESIAN_POINT ( 'NONE',  ( 4.750000000000000000, 12.49999999999999300, 12.50000000000000000 ) ) ;
#197 = DIRECTION ( 'NONE',  ( 0.0000000000000000000, 2.775557561562891400E-016, -1.000000000000000000 ) ) ;
#198 = CC_DESIGN_DATE_AND_TIME_ASSIGNMENT ( #176, #207, ( #187 ) ) ;
#199 = DIRECTION ( 'NONE',  ( -0.0000000000000000000, -2.775557561562891400E-016, 1.000000000000000000 ) ) ;
#200 = PERSON_AND_ORGANIZATION ( #235, #106 ) ;
#201 = ORIENTED_EDGE ( 'NONE', *, *, #157, .T. ) ;
#202 = LINE ( 'NONE', #233, #156 ) ;
#203 = AXIS2_PLACEMENT_3D ( 'NONE', #51, #183, #35 ) ;
#204 = APPLICATION_PROTOCOL_DEFINITION ( 'international standard', 'config_control_design', 1994, #112 ) ;
#205 = PRODUCT_DEFINITION ( 'UNKNOWN', '', #215, #232 ) ;
#206 = VERTEX_POINT ( 'NONE', #141 ) ;
#207 = DATE_TIME_ROLE ( 'classification_date' ) ;
#208 = LOCAL_TIME ( 16, 50, 25.00000000000000000, #47 ) ;
#209 = VECTOR ( 'NONE', #16, 1000.000000000000000 ) ;
#210 = LINE ( 'NONE', #122, #49 ) ;
#211 = LOCAL_TIME ( 16, 50, 25.00000000000000000, #225 ) ;
#212 = CC_DESIGN_APPROVAL ( #108, ( #187 ) ) ;
#213 = LOCAL_TIME ( 16, 50, 25.00000000000000000, #159 ) ;
#214 = DIRECTION ( 'NONE',  ( 0.0000000000000000000, 0.0000000000000000000, -1.000000000000000000 ) ) ;
#215 = PRODUCT_DEFINITION_FORMATION_WITH_SPECIFIED_SOURCE ( 'ANY', '', #75, .NOT_KNOWN. ) ;
#216 = PERSON_AND_ORGANIZATION ( #235, #106 ) ;
#217 = CARTESIAN_POINT ( 'NONE',  ( 4.750000000000000000, 12.50000000000000000, -12.50000000000000000 ) ) ;
#218 = FACE_OUTER_BOUND ( 'NONE', #177, .T. ) ;
#219 = DATE_AND_TIME ( #54, #213 ) ;
#220 = EDGE_LOOP ( 'NONE', ( #11, #83, #145, #237 ) ) ;
#221 = APPROVAL_ROLE ( '' ) ;
#222 = APPLICATION_CONTEXT ( 'configuration controlled 3d designs of mechanical parts and assemblies' ) ;
#223 = ORIENTED_EDGE ( 'NONE', *, *, #188, .T. ) ;
#224 = UNCERTAINTY_MEASURE_WITH_UNIT (LENGTH_MEASURE( 1.000000000000000100E-005 ), #76, 'distance_accuracy_value', 'NONE');
#225 = COORDINATED_UNIVERSAL_TIME_OFFSET ( 5, 0, .BEHIND. ) ;
#226 = EDGE_LOOP ( 'NONE', ( #201, #7, #114, #97 ) ) ;
#227 = CC_DESIGN_PERSON_AND_ORGANIZATION_ASSIGNMENT ( #29, #22, ( #215 ) ) ;
#228 = VECTOR ( 'NONE', #17, 1000.000000000000000 ) ;
#229 = LINE ( 'NONE', #109, #228 ) ;
#230 = CARTESIAN_POINT ( 'NONE',  ( 4.750000000000000000, -12.50000000000000000, -12.50000000000000000 ) ) ;
#231 = CARTESIAN_POINT ( 'NONE',  ( -4.750000000000000000, 12.50000000000000000, -12.50000000000000000 ) ) ;
#232 = DESIGN_CONTEXT ( 'detailed design', #222, 'design' ) ;
#233 = CARTESIAN_POINT ( 'NONE',  ( -4.750000000000000000, -12.50000000000000000, 12.50000000000000000 ) ) ;
#234 = LINE ( 'NONE', #92, #136 ) ;
#235 = PERSON ( 'UNSPECIFIED', 'UNSPECIFIED', 'UNSPECIFIED', ('UNSPECIFIED'), ('UNSPECIFIED'), ('UNSPECIFIED') ) ;
#236 = EDGE_CURVE ( 'NONE', #123, #160, #229, .T. ) ;
#237 = ORIENTED_EDGE ( 'NONE', *, *, #236, .T. ) ;
ENDSEC;
END-ISO-10303-21;
