ISO-10303-21;
HEADER;
FILE_DESCRIPTION (( 'STEP AP203' ),
    '1' );
FILE_NAME ('Web Model 84449.STEP',
    '2017-02-01T15:43:09',
    ( '' ),
    ( '' ),
    'SwSTEP 2.0',
    'SolidWorks 2016',
    '' );
FILE_SCHEMA (( 'CONFIG_CONTROL_DESIGN' ));
ENDSEC;

DATA;
#1 = ORIENTED_EDGE ( 'NONE', *, *, #136, .F. ) ;
#2 = CALENDAR_DATE ( 2017, 1, 2 ) ;
#3 = AXIS2_PLACEMENT_3D ( 'NONE', #119, #129, #149 ) ;
#4 = PERSON_AND_ORGANIZATION ( #144, #98 ) ;
#5 = PERSON_AND_ORGANIZATION ( #144, #98 ) ;
#6 =( LENGTH_UNIT ( ) NAMED_UNIT ( * ) SI_UNIT ( .MILLI., .METRE. ) );
#7 = DIRECTION ( 'NONE',  ( 1.000000000000000000, 0.0000000000000000000, -0.0000000000000000000 ) ) ;
#8 = CALENDAR_DATE ( 2017, 1, 2 ) ;
#9 = CC_DESIGN_SECURITY_CLASSIFICATION ( #107, ( #104 ) ) ;
#10 = DIRECTION ( 'NONE',  ( 0.0000000000000000000, 0.0000000000000000000, 1.000000000000000000 ) ) ;
#11 = FACE_OUTER_BOUND ( 'NONE', #43, .T. ) ;
#12 = SHAPE_DEFINITION_REPRESENTATION ( #66, #116 ) ;
#13 = CC_DESIGN_DATE_AND_TIME_ASSIGNMENT ( #17, #160, ( #79 ) ) ;
#14 = APPROVAL_STATUS ( 'not_yet_approved' ) ;
#15 = CIRCLE ( 'NONE', #161, 2.500000000000000000 ) ;
#16 = ORIENTED_EDGE ( 'NONE', *, *, #19, .F. ) ;
#17 = DATE_AND_TIME ( #28, #120 ) ;
#18 = ADVANCED_FACE ( 'NONE', ( #128 ), #88, .T. ) ;
#19 = EDGE_CURVE ( 'NONE', #83, #102, #15, .T. ) ;
#20 = CARTESIAN_POINT ( 'NONE',  ( 0.0000000000000000000, 0.0000000000000000000, 0.0000000000000000000 ) ) ;
#21 = APPROVAL ( #59, 'UNSPECIFIED' ) ;
#22 = DIRECTION ( 'NONE',  ( 0.0000000000000000000, 0.0000000000000000000, 1.000000000000000000 ) ) ;
#23 = CC_DESIGN_PERSON_AND_ORGANIZATION_ASSIGNMENT ( #30, #127, ( #104 ) ) ;
#24 = DIRECTION ( 'NONE',  ( 1.000000000000000000, 0.0000000000000000000, 0.0000000000000000000 ) ) ;
#25 = AXIS2_PLACEMENT_3D ( 'NONE', #82, #112, #57 ) ;
#26 = CARTESIAN_POINT ( 'NONE',  ( 2.500000000000000000, 0.0000000000000000000, 0.0000000000000000000 ) ) ;
#27 = ADVANCED_FACE ( 'NONE', ( #150 ), #99, .F. ) ;
#28 = CALENDAR_DATE ( 2017, 1, 2 ) ;
#29 = CC_DESIGN_PERSON_AND_ORGANIZATION_ASSIGNMENT ( #131, #118, ( #104 ) ) ;
#30 = PERSON_AND_ORGANIZATION ( #144, #98 ) ;
#31 = CARTESIAN_POINT ( 'NONE',  ( 0.0000000000000000000, 0.0000000000000000000, -1.000000000000000000 ) ) ;
#32 = DATE_AND_TIME ( #140, #143 ) ;
#33 = APPROVAL_ROLE ( '' ) ;
#34 = DESIGN_CONTEXT ( 'detailed design', #117, 'design' ) ;
#35 = APPROVAL_ROLE ( '' ) ;
#36 = CC_DESIGN_PERSON_AND_ORGANIZATION_ASSIGNMENT ( #63, #169, ( #79 ) ) ;
#37 = VECTOR ( 'NONE', #10, 1000.000000000000000 ) ;
#38 = DIRECTION ( 'NONE',  ( 1.000000000000000000, 0.0000000000000000000, 0.0000000000000000000 ) ) ;
#39 = DIRECTION ( 'NONE',  ( 0.0000000000000000000, 0.0000000000000000000, 1.000000000000000000 ) ) ;
#40 = ADVANCED_FACE ( 'NONE', ( #11 ), #77, .T. ) ;
#41 = LOCAL_TIME ( 10, 43, 9.000000000000000000, #72 ) ;
#42 = COORDINATED_UNIVERSAL_TIME_OFFSET ( 5, 0, .BEHIND. ) ;
#43 = EDGE_LOOP ( 'NONE', ( #55, #122, #1, #159 ) ) ;
#44 = ORIENTED_EDGE ( 'NONE', *, *, #152, .F. ) ;
#45 =( NAMED_UNIT ( * ) PLANE_ANGLE_UNIT ( ) SI_UNIT ( $, .RADIAN. ) );
#46 = CARTESIAN_POINT ( 'NONE',  ( -2.500000000000000000, 3.061616997868383100E-016, -1.000000000000000000 ) ) ;
#47 = COORDINATED_UNIVERSAL_TIME_OFFSET ( 5, 0, .BEHIND. ) ;
#48 = SECURITY_CLASSIFICATION_LEVEL ( 'unclassified' ) ;
#49 = APPLICATION_PROTOCOL_DEFINITION ( 'international standard', 'config_control_design', 1994, #91 ) ;
#50 = DATE_AND_TIME ( #139, #147 ) ;
#51 = DIRECTION ( 'NONE',  ( 1.000000000000000000, 0.0000000000000000000, -0.0000000000000000000 ) ) ;
#52 = EDGE_LOOP ( 'NONE', ( #60, #74 ) ) ;
#53 = FACE_OUTER_BOUND ( 'NONE', #52, .T. ) ;
#54 = AXIS2_PLACEMENT_3D ( 'NONE', #20, #69, #80 ) ;
#55 = ORIENTED_EDGE ( 'NONE', *, *, #130, .T. ) ;
#56 =( NAMED_UNIT ( * ) SI_UNIT ( $, .STERADIAN. ) SOLID_ANGLE_UNIT ( ) );
#57 = DIRECTION ( 'NONE',  ( 1.000000000000000000, 0.0000000000000000000, 0.0000000000000000000 ) ) ;
#58 = DATE_AND_TIME ( #2, #103 ) ;
#59 = APPROVAL_STATUS ( 'not_yet_approved' ) ;
#60 = ORIENTED_EDGE ( 'NONE', *, *, #136, .T. ) ;
#61 = MECHANICAL_CONTEXT ( 'NONE', #91, 'mechanical' ) ;
#62 = CIRCLE ( 'NONE', #54, 2.500000000000000000 ) ;
#63 = PERSON_AND_ORGANIZATION ( #144, #98 ) ;
#64 = CARTESIAN_POINT ( 'NONE',  ( -2.500000000000000000, 3.061616997868383100E-016, -1.000000000000000000 ) ) ;
#65 = CLOSED_SHELL ( 'NONE', ( #40, #18, #27, #164 ) ) ;
#66 = PRODUCT_DEFINITION_SHAPE ( 'NONE', 'NONE',  #79 ) ;
#67 = AXIS2_PLACEMENT_3D ( 'NONE', #85, #39, #51 ) ;
#68 = ORIENTED_EDGE ( 'NONE', *, *, #173, .F. ) ;
#69 = DIRECTION ( 'NONE',  ( 0.0000000000000000000, 0.0000000000000000000, 1.000000000000000000 ) ) ;
#70 = AXIS2_PLACEMENT_3D ( 'NONE', #125, #142, #24 ) ;
#71 = APPROVAL_ROLE ( '' ) ;
#72 = COORDINATED_UNIVERSAL_TIME_OFFSET ( 5, 0, .BEHIND. ) ;
#73 = AXIS2_PLACEMENT_3D ( 'NONE', #31, #90, #154 ) ;
#74 = ORIENTED_EDGE ( 'NONE', *, *, #173, .T. ) ;
#75 = APPROVAL_PERSON_ORGANIZATION ( #166, #21, #71 ) ;
#76 = ORIENTED_EDGE ( 'NONE', *, *, #130, .F. ) ;
#77 = CYLINDRICAL_SURFACE ( 'NONE', #3, 2.500000000000000000 ) ;
#78 = APPROVAL_PERSON_ORGANIZATION ( #5, #137, #33 ) ;
#79 = PRODUCT_DEFINITION ( 'UNKNOWN', '', #104, #34 ) ;
#80 = DIRECTION ( 'NONE',  ( 1.000000000000000000, 0.0000000000000000000, 0.0000000000000000000 ) ) ;
#81 = CARTESIAN_POINT ( 'NONE',  ( -2.500000000000000000, 3.061616997868383100E-016, 0.0000000000000000000 ) ) ;
#82 = CARTESIAN_POINT ( 'NONE',  ( 0.0000000000000000000, 0.0000000000000000000, 0.0000000000000000000 ) ) ;
#83 = VERTEX_POINT ( 'NONE', #64 ) ;
#84 = APPROVAL_STATUS ( 'not_yet_approved' ) ;
#85 = CARTESIAN_POINT ( 'NONE',  ( 0.0000000000000000000, 0.0000000000000000000, -1.000000000000000000 ) ) ;
#86 = COORDINATED_UNIVERSAL_TIME_OFFSET ( 5, 0, .BEHIND. ) ;
#87 = DATE_AND_TIME ( #8, #41 ) ;
#88 = CYLINDRICAL_SURFACE ( 'NONE', #165, 2.500000000000000000 ) ;
#89 = AXIS2_PLACEMENT_3D ( 'NONE', #92, #22, #7 ) ;
#90 = DIRECTION ( 'NONE',  ( 0.0000000000000000000, 0.0000000000000000000, 1.000000000000000000 ) ) ;
#91 = APPLICATION_CONTEXT ( 'configuration controlled 3d designs of mechanical parts and assemblies' ) ;
#92 = CARTESIAN_POINT ( 'NONE',  ( 0.0000000000000000000, 0.0000000000000000000, 0.0000000000000000000 ) ) ;
#93 = APPROVAL_DATE_TIME ( #58, #115 ) ;
#94 = DATE_TIME_ROLE ( 'classification_date' ) ;
#95 = PRODUCT ( 'Web Model 84449', 'Web Model 84449', '', ( #61 ) ) ;
#96 = EDGE_LOOP ( 'NONE', ( #44, #167, #151, #68 ) ) ;
#97 = CARTESIAN_POINT ( 'NONE',  ( 0.0000000000000000000, 0.0000000000000000000, -1.000000000000000000 ) ) ;
#98 = ORGANIZATION ( 'UNSPECIFIED', 'UNSPECIFIED', '' ) ;
#99 = PLANE ( 'NONE',  #67 ) ;
#100 =( GEOMETRIC_REPRESENTATION_CONTEXT ( 3 ) GLOBAL_UNCERTAINTY_ASSIGNED_CONTEXT ( ( #110 ) ) GLOBAL_UNIT_ASSIGNED_CONTEXT ( ( #6, #45, #56 ) ) REPRESENTATION_CONTEXT ( 'NONE', 'WORKASPACE' ) );
#101 = LINE ( 'NONE', #141, #37 ) ;
#102 = VERTEX_POINT ( 'NONE', #123 ) ;
#103 = LOCAL_TIME ( 10, 43, 9.000000000000000000, #86 ) ;
#104 = PRODUCT_DEFINITION_FORMATION_WITH_SPECIFIED_SOURCE ( 'ANY', '', #95, .NOT_KNOWN. ) ;
#105 = LINE ( 'NONE', #46, #157 ) ;
#106 = APPROVAL_DATE_TIME ( #50, #21 ) ;
#107 = SECURITY_CLASSIFICATION ( '', '', #48 ) ;
#108 = MANIFOLD_SOLID_BREP ( 'Extrude1', #65 ) ;
#109 = CC_DESIGN_PERSON_AND_ORGANIZATION_ASSIGNMENT ( #134, #170, ( #107 ) ) ;
#110 = UNCERTAINTY_MEASURE_WITH_UNIT (LENGTH_MEASURE( 1.000000000000000100E-005 ), #6, 'distance_accuracy_value', 'NONE');
#111 = VERTEX_POINT ( 'NONE', #81 ) ;
#112 = DIRECTION ( 'NONE',  ( 0.0000000000000000000, 0.0000000000000000000, 1.000000000000000000 ) ) ;
#113 = COORDINATED_UNIVERSAL_TIME_OFFSET ( 5, 0, .BEHIND. ) ;
#114 = DIRECTION ( 'NONE',  ( 0.0000000000000000000, 0.0000000000000000000, 1.000000000000000000 ) ) ;
#115 = APPROVAL ( #14, 'UNSPECIFIED' ) ;
#116 = ADVANCED_BREP_SHAPE_REPRESENTATION ( 'Web Model 84449', ( #108, #70 ), #100 ) ;
#117 = APPLICATION_CONTEXT ( 'configuration controlled 3d designs of mechanical parts and assemblies' ) ;
#118 = PERSON_AND_ORGANIZATION_ROLE ( 'creator' ) ;
#119 = CARTESIAN_POINT ( 'NONE',  ( 0.0000000000000000000, 0.0000000000000000000, -1.000000000000000000 ) ) ;
#120 = LOCAL_TIME ( 10, 43, 9.000000000000000000, #47 ) ;
#121 = CC_DESIGN_DATE_AND_TIME_ASSIGNMENT ( #87, #94, ( #107 ) ) ;
#122 = ORIENTED_EDGE ( 'NONE', *, *, #152, .T. ) ;
#123 = CARTESIAN_POINT ( 'NONE',  ( 2.500000000000000000, 0.0000000000000000000, -1.000000000000000000 ) ) ;
#124 = CC_DESIGN_APPROVAL ( #21, ( #107 ) ) ;
#125 = CARTESIAN_POINT ( 'NONE',  ( 0.0000000000000000000, 0.0000000000000000000, 0.0000000000000000000 ) ) ;
#126 = EDGE_CURVE ( 'NONE', #102, #171, #101, .T. ) ;
#127 = PERSON_AND_ORGANIZATION_ROLE ( 'design_supplier' ) ;
#128 = FACE_OUTER_BOUND ( 'NONE', #96, .T. ) ;
#129 = DIRECTION ( 'NONE',  ( 0.0000000000000000000, 0.0000000000000000000, 1.000000000000000000 ) ) ;
#130 = EDGE_CURVE ( 'NONE', #102, #83, #156, .T. ) ;
#131 = PERSON_AND_ORGANIZATION ( #144, #98 ) ;
#132 = DIRECTION ( 'NONE',  ( 1.000000000000000000, 0.0000000000000000000, 0.0000000000000000000 ) ) ;
#133 = PRODUCT_RELATED_PRODUCT_CATEGORY ( 'detail', '', ( #95 ) ) ;
#134 = PERSON_AND_ORGANIZATION ( #144, #98 ) ;
#135 = APPROVAL_DATE_TIME ( #32, #137 ) ;
#136 = EDGE_CURVE ( 'NONE', #171, #111, #145, .T. ) ;
#137 = APPROVAL ( #84, 'UNSPECIFIED' ) ;
#138 = EDGE_LOOP ( 'NONE', ( #76, #16 ) ) ;
#139 = CALENDAR_DATE ( 2017, 1, 2 ) ;
#140 = CALENDAR_DATE ( 2017, 1, 2 ) ;
#141 = CARTESIAN_POINT ( 'NONE',  ( 2.500000000000000000, 0.0000000000000000000, -1.000000000000000000 ) ) ;
#142 = DIRECTION ( 'NONE',  ( 0.0000000000000000000, 0.0000000000000000000, 1.000000000000000000 ) ) ;
#143 = LOCAL_TIME ( 10, 43, 9.000000000000000000, #113 ) ;
#144 = PERSON ( 'UNSPECIFIED', 'UNSPECIFIED', 'UNSPECIFIED', ('UNSPECIFIED'), ('UNSPECIFIED'), ('UNSPECIFIED') ) ;
#145 = CIRCLE ( 'NONE', #25, 2.500000000000000000 ) ;
#146 = CC_DESIGN_APPROVAL ( #137, ( #79 ) ) ;
#147 = LOCAL_TIME ( 10, 43, 9.000000000000000000, #42 ) ;
#148 = DIRECTION ( 'NONE',  ( 0.0000000000000000000, 0.0000000000000000000, 1.000000000000000000 ) ) ;
#149 = DIRECTION ( 'NONE',  ( 1.000000000000000000, 0.0000000000000000000, 0.0000000000000000000 ) ) ;
#150 = FACE_OUTER_BOUND ( 'NONE', #138, .T. ) ;
#151 = ORIENTED_EDGE ( 'NONE', *, *, #126, .T. ) ;
#152 = EDGE_CURVE ( 'NONE', #83, #111, #105, .T. ) ;
#153 = PERSON_AND_ORGANIZATION ( #144, #98 ) ;
#154 = DIRECTION ( 'NONE',  ( 1.000000000000000000, 0.0000000000000000000, 0.0000000000000000000 ) ) ;
#155 = PLANE ( 'NONE',  #89 ) ;
#156 = CIRCLE ( 'NONE', #73, 2.500000000000000000 ) ;
#157 = VECTOR ( 'NONE', #114, 1000.000000000000000 ) ;
#158 = APPLICATION_PROTOCOL_DEFINITION ( 'international standard', 'config_control_design', 1994, #117 ) ;
#159 = ORIENTED_EDGE ( 'NONE', *, *, #126, .F. ) ;
#160 = DATE_TIME_ROLE ( 'creation_date' ) ;
#161 = AXIS2_PLACEMENT_3D ( 'NONE', #97, #175, #38 ) ;
#162 = CARTESIAN_POINT ( 'NONE',  ( 0.0000000000000000000, 0.0000000000000000000, -1.000000000000000000 ) ) ;
#163 = CC_DESIGN_APPROVAL ( #115, ( #104 ) ) ;
#164 = ADVANCED_FACE ( 'NONE', ( #53 ), #155, .T. ) ;
#165 = AXIS2_PLACEMENT_3D ( 'NONE', #162, #148, #132 ) ;
#166 = PERSON_AND_ORGANIZATION ( #144, #98 ) ;
#167 = ORIENTED_EDGE ( 'NONE', *, *, #19, .T. ) ;
#168 = APPROVAL_PERSON_ORGANIZATION ( #153, #115, #35 ) ;
#169 = PERSON_AND_ORGANIZATION_ROLE ( 'creator' ) ;
#170 = PERSON_AND_ORGANIZATION_ROLE ( 'classification_officer' ) ;
#171 = VERTEX_POINT ( 'NONE', #26 ) ;
#172 = PERSON_AND_ORGANIZATION_ROLE ( 'design_owner' ) ;
#173 = EDGE_CURVE ( 'NONE', #111, #171, #62, .T. ) ;
#174 = CC_DESIGN_PERSON_AND_ORGANIZATION_ASSIGNMENT ( #4, #172, ( #95 ) ) ;
#175 = DIRECTION ( 'NONE',  ( 0.0000000000000000000, 0.0000000000000000000, 1.000000000000000000 ) ) ;
ENDSEC;
END-ISO-10303-21;
