ISO-10303-21;
HEADER;
FILE_DESCRIPTION (( 'STEP AP203' ),
    '1' );
FILE_NAME ('Web Model 11874_22456.step',
    '2022-06-07T18:26:38',
    ( 'WC' ),
    ( 'Windows Central' ),
    'SwSTEP 2.0',
    'SolidWorks 2021',
    '' );
FILE_SCHEMA (( 'CONFIG_CONTROL_DESIGN' ));
ENDSEC;

DATA;
#1 = CALENDAR_DATE ( 2022, 7, 6 ) ;
#2 = ORIENTED_EDGE ( 'NONE', *, *, #161, .T. ) ;
#3 = ORIENTED_EDGE ( 'NONE', *, *, #161, .F. ) ;
#4 = DIRECTION ( 'NONE',  ( 0.000000000000000000, 0.000000000000000000, 1.000000000000000000 ) ) ;
#5 = PRODUCT_DEFINITION ( 'UNKNOWN', '', #116, #146 ) ;
#6 =( LENGTH_UNIT ( ) NAMED_UNIT ( * ) SI_UNIT ( .MILLI., .METRE. ) );
#7 = VERTEX_POINT ( 'NONE', #155 ) ;
#8 = APPROVAL_PERSON_ORGANIZATION ( #49, #13, #132 ) ;
#9 = DIRECTION ( 'NONE',  ( 1.000000000000000000, 0.000000000000000000, 0.000000000000000000 ) ) ;
#10 = CYLINDRICAL_SURFACE ( 'NONE', #130, 12.50000000000000000 ) ;
#11 = EDGE_CURVE ( 'NONE', #7, #42, #158, .T. ) ;
#12 = DATE_TIME_ROLE ( 'classification_date' ) ;
#13 = APPROVAL ( #109, 'UNSPECIFIED' ) ;
#14 = DIRECTION ( 'NONE',  ( -1.000000000000000000, 0.000000000000000000, 0.000000000000000000 ) ) ;
#15 = AXIS2_PLACEMENT_3D ( 'NONE', #56, #154, #28 ) ;
#16 = PERSON_AND_ORGANIZATION_ROLE ( 'design_owner' ) ;
#17 = ORIENTED_EDGE ( 'NONE', *, *, #11, .T. ) ;
#18 = DIRECTION ( 'NONE',  ( 1.000000000000000000, 0.000000000000000000, -0.000000000000000000 ) ) ;
#19 = FACE_OUTER_BOUND ( 'NONE', #24, .T. ) ;
#20 =( NAMED_UNIT ( * ) SI_UNIT ( $, .STERADIAN. ) SOLID_ANGLE_UNIT ( ) );
#21 = COORDINATED_UNIVERSAL_TIME_OFFSET ( 5, 0, .BEHIND. ) ;
#22 = APPROVAL_ROLE ( '' ) ;
#23 = CC_DESIGN_PERSON_AND_ORGANIZATION_ASSIGNMENT ( #145, #105, ( #36 ) ) ;
#24 = EDGE_LOOP ( 'NONE', ( #99, #26, #53, #112 ) ) ;
#25 = DIRECTION ( 'NONE',  ( 0.000000000000000000, 0.000000000000000000, 1.000000000000000000 ) ) ;
#26 = ORIENTED_EDGE ( 'NONE', *, *, #143, .F. ) ;
#27 = PERSON_AND_ORGANIZATION ( #166, #102 ) ;
#28 = DIRECTION ( 'NONE',  ( 1.000000000000000000, 0.000000000000000000, -0.000000000000000000 ) ) ;
#29 = ADVANCED_FACE ( 'NONE', ( #138 ), #30, .F. ) ;
#30 = PLANE ( 'NONE',  #40 ) ;
#31 = CIRCLE ( 'NONE', #84, 12.50000000000000000 ) ;
#32 = APPROVAL_STATUS ( 'not_yet_approved' ) ;
#33 = SECURITY_CLASSIFICATION_LEVEL ( 'unclassified' ) ;
#34 = DIRECTION ( 'NONE',  ( 1.000000000000000000, 0.000000000000000000, 0.000000000000000000 ) ) ;
#35 = CC_DESIGN_DATE_AND_TIME_ASSIGNMENT ( #163, #60, ( #5 ) ) ;
#36 = SECURITY_CLASSIFICATION ( '', '', #33 ) ;
#37 = COORDINATED_UNIVERSAL_TIME_OFFSET ( 5, 0, .BEHIND. ) ;
#38 = EDGE_LOOP ( 'NONE', ( #3, #17, #150, #97 ) ) ;
#39 = CARTESIAN_POINT ( 'NONE',  ( 0.000000000000000000, 0.000000000000000000, 2.500000000000000000 ) ) ;
#40 = AXIS2_PLACEMENT_3D ( 'NONE', #141, #61, #18 ) ;
#41 = DATE_AND_TIME ( #1, #73 ) ;
#42 = VERTEX_POINT ( 'NONE', #65 ) ;
#43 = DIRECTION ( 'NONE',  ( -0.000000000000000000, -0.000000000000000000, -1.000000000000000000 ) ) ;
#44 = DIRECTION ( 'NONE',  ( 0.000000000000000000, 0.000000000000000000, 1.000000000000000000 ) ) ;
#45 = AXIS2_PLACEMENT_3D ( 'NONE', #66, #25, #100 ) ;
#46 = LOCAL_TIME ( 14, 26, 38.00000000000000000, #69 ) ;
#47 = APPROVAL_PERSON_ORGANIZATION ( #121, #131, #122 ) ;
#48 = LOCAL_TIME ( 14, 26, 38.00000000000000000, #21 ) ;
#49 = PERSON_AND_ORGANIZATION ( #166, #102 ) ;
#50 = ADVANCED_BREP_SHAPE_REPRESENTATION ( 'Web Model 11874_22456', ( #101, #94 ), #135 ) ;
#51 = APPLICATION_CONTEXT ( 'configuration controlled 3d designs of mechanical parts and assemblies' ) ;
#52 = AXIS2_PLACEMENT_3D ( 'NONE', #95, #80, #126 ) ;
#53 = ORIENTED_EDGE ( 'NONE', *, *, #114, .T. ) ;
#54 = CARTESIAN_POINT ( 'NONE',  ( 0.000000000000000000, 0.000000000000000000, -2.500000000000000000 ) ) ;
#55 = CARTESIAN_POINT ( 'NONE',  ( -12.50000000000000000, 0.000000000000000000, 2.500000000000000000 ) ) ;
#56 = CARTESIAN_POINT ( 'NONE',  ( 0.000000000000000000, 0.000000000000000000, 2.500000000000000000 ) ) ;
#57 = ADVANCED_FACE ( 'NONE', ( #128 ), #10, .T. ) ;
#58 = VECTOR ( 'NONE', #43, 1000.000000000000000 ) ;
#59 = PRODUCT_RELATED_PRODUCT_CATEGORY ( 'detail', '', ( #98 ) ) ;
#60 = DATE_TIME_ROLE ( 'creation_date' ) ;
#61 = DIRECTION ( 'NONE',  ( 0.000000000000000000, 0.000000000000000000, 1.000000000000000000 ) ) ;
#62 = CC_DESIGN_PERSON_AND_ORGANIZATION_ASSIGNMENT ( #136, #16, ( #98 ) ) ;
#63 = CLOSED_SHELL ( 'NONE', ( #57, #127, #175, #29 ) ) ;
#64 = CARTESIAN_POINT ( 'NONE',  ( -12.50000000000000000, 0.000000000000000000, -2.500000000000000000 ) ) ;
#65 = CARTESIAN_POINT ( 'NONE',  ( 12.50000000000000000, 1.530808498934191521E-15, -2.500000000000000000 ) ) ;
#66 = CARTESIAN_POINT ( 'NONE',  ( 0.000000000000000000, 0.000000000000000000, 2.500000000000000000 ) ) ;
#67 = UNCERTAINTY_MEASURE_WITH_UNIT (LENGTH_MEASURE( 1.000000000000000082E-05 ), #6, 'distance_accuracy_value', 'NONE');
#68 = DATE_AND_TIME ( #147, #142 ) ;
#69 = COORDINATED_UNIVERSAL_TIME_OFFSET ( 5, 0, .BEHIND. ) ;
#70 = CIRCLE ( 'NONE', #45, 12.50000000000000000 ) ;
#71 = APPLICATION_CONTEXT ( 'configuration controlled 3d designs of mechanical parts and assemblies' ) ;
#72 = AXIS2_PLACEMENT_3D ( 'NONE', #54, #44, #159 ) ;
#73 = LOCAL_TIME ( 14, 26, 38.00000000000000000, #37 ) ;
#74 = APPLICATION_PROTOCOL_DEFINITION ( 'international standard', 'config_control_design', 1994, #51 ) ;
#75 = VERTEX_POINT ( 'NONE', #171 ) ;
#76 = COORDINATED_UNIVERSAL_TIME_OFFSET ( 5, 0, .BEHIND. ) ;
#77 = ORIENTED_EDGE ( 'NONE', *, *, #83, .F. ) ;
#78 = APPLICATION_PROTOCOL_DEFINITION ( 'international standard', 'config_control_design', 1994, #71 ) ;
#79 = CARTESIAN_POINT ( 'NONE',  ( 12.50000000000000000, 1.530808498934191521E-15, 2.500000000000000000 ) ) ;
#80 = DIRECTION ( 'NONE',  ( 0.000000000000000000, 0.000000000000000000, 1.000000000000000000 ) ) ;
#81 = VECTOR ( 'NONE', #139, 1000.000000000000000 ) ;
#82 = CC_DESIGN_APPROVAL ( #131, ( #5 ) ) ;
#83 = EDGE_CURVE ( 'NONE', #42, #91, #31, .T. ) ;
#84 = AXIS2_PLACEMENT_3D ( 'NONE', #140, #4, #9 ) ;
#85 = APPROVAL_PERSON_ORGANIZATION ( #115, #96, #22 ) ;
#86 = PERSON_AND_ORGANIZATION_ROLE ( 'creator' ) ;
#87 = CC_DESIGN_PERSON_AND_ORGANIZATION_ASSIGNMENT ( #134, #86, ( #116 ) ) ;
#88 = CALENDAR_DATE ( 2022, 7, 6 ) ;
#89 = DATE_AND_TIME ( #88, #46 ) ;
#90 = PERSON_AND_ORGANIZATION ( #166, #102 ) ;
#91 = VERTEX_POINT ( 'NONE', #64 ) ;
#92 = EDGE_LOOP ( 'NONE', ( #169, #2 ) ) ;
#93 = DIRECTION ( 'NONE',  ( -1.000000000000000000, 0.000000000000000000, 0.000000000000000000 ) ) ;
#94 = AXIS2_PLACEMENT_3D ( 'NONE', #148, #118, #34 ) ;
#95 = CARTESIAN_POINT ( 'NONE',  ( 0.000000000000000000, 0.000000000000000000, 2.500000000000000000 ) ) ;
#96 = APPROVAL ( #32, 'UNSPECIFIED' ) ;
#97 = ORIENTED_EDGE ( 'NONE', *, *, #114, .F. ) ;
#98 = PRODUCT ( 'Web Model 11874_22456', 'Web Model 11874_22456', '', ( #165 ) ) ;
#99 = ORIENTED_EDGE ( 'NONE', *, *, #11, .F. ) ;
#100 = DIRECTION ( 'NONE',  ( 1.000000000000000000, 0.000000000000000000, 0.000000000000000000 ) ) ;
#101 = MANIFOLD_SOLID_BREP ( 'Boss-Extrude1', #63 ) ;
#102 = ORGANIZATION ( 'UNSPECIFIED', 'UNSPECIFIED', '' ) ;
#103 = CC_DESIGN_PERSON_AND_ORGANIZATION_ASSIGNMENT ( #27, #125, ( #5 ) ) ;
#104 = CALENDAR_DATE ( 2022, 7, 6 ) ;
#105 = PERSON_AND_ORGANIZATION_ROLE ( 'classification_officer' ) ;
#106 = EDGE_CURVE ( 'NONE', #91, #42, #111, .T. ) ;
#107 = CC_DESIGN_SECURITY_CLASSIFICATION ( #36, ( #116 ) ) ;
#108 = APPROVAL_STATUS ( 'not_yet_approved' ) ;
#109 = APPROVAL_STATUS ( 'not_yet_approved' ) ;
#110 = DIRECTION ( 'NONE',  ( -0.000000000000000000, -0.000000000000000000, -1.000000000000000000 ) ) ;
#111 = CIRCLE ( 'NONE', #72, 12.50000000000000000 ) ;
#112 = ORIENTED_EDGE ( 'NONE', *, *, #106, .T. ) ;
#113 = PRODUCT_DEFINITION_SHAPE ( 'NONE', 'NONE',  #5 ) ;
#114 = EDGE_CURVE ( 'NONE', #75, #91, #168, .T. ) ;
#115 = PERSON_AND_ORGANIZATION ( #166, #102 ) ;
#116 = PRODUCT_DEFINITION_FORMATION_WITH_SPECIFIED_SOURCE ( 'ANY', '', #98, .NOT_KNOWN. ) ;
#117 = COORDINATED_UNIVERSAL_TIME_OFFSET ( 5, 0, .BEHIND. ) ;
#118 = DIRECTION ( 'NONE',  ( 0.000000000000000000, 0.000000000000000000, 1.000000000000000000 ) ) ;
#119 = CARTESIAN_POINT ( 'NONE',  ( 0.000000000000000000, 0.000000000000000000, 2.500000000000000000 ) ) ;
#120 = CC_DESIGN_DATE_AND_TIME_ASSIGNMENT ( #68, #12, ( #36 ) ) ;
#121 = PERSON_AND_ORGANIZATION ( #166, #102 ) ;
#122 = APPROVAL_ROLE ( '' ) ;
#123 = AXIS2_PLACEMENT_3D ( 'NONE', #39, #110, #93 ) ;
#124 = EDGE_LOOP ( 'NONE', ( #153, #77 ) ) ;
#125 = PERSON_AND_ORGANIZATION_ROLE ( 'creator' ) ;
#126 = DIRECTION ( 'NONE',  ( 1.000000000000000000, 0.000000000000000000, 0.000000000000000000 ) ) ;
#127 = ADVANCED_FACE ( 'NONE', ( #19 ), #151, .T. ) ;
#128 = FACE_OUTER_BOUND ( 'NONE', #38, .T. ) ;
#129 = FACE_OUTER_BOUND ( 'NONE', #92, .T. ) ;
#130 = AXIS2_PLACEMENT_3D ( 'NONE', #119, #133, #14 ) ;
#131 = APPROVAL ( #108, 'UNSPECIFIED' ) ;
#132 = APPROVAL_ROLE ( '' ) ;
#133 = DIRECTION ( 'NONE',  ( -0.000000000000000000, -0.000000000000000000, -1.000000000000000000 ) ) ;
#134 = PERSON_AND_ORGANIZATION ( #166, #102 ) ;
#135 =( GEOMETRIC_REPRESENTATION_CONTEXT ( 3 ) GLOBAL_UNCERTAINTY_ASSIGNED_CONTEXT ( ( #67 ) ) GLOBAL_UNIT_ASSIGNED_CONTEXT ( ( #6, #156, #20 ) ) REPRESENTATION_CONTEXT ( 'NONE', 'WORKASPACE' ) );
#136 = PERSON_AND_ORGANIZATION ( #166, #102 ) ;
#137 = CC_DESIGN_PERSON_AND_ORGANIZATION_ASSIGNMENT ( #90, #170, ( #116 ) ) ;
#138 = FACE_OUTER_BOUND ( 'NONE', #124, .T. ) ;
#139 = DIRECTION ( 'NONE',  ( -0.000000000000000000, -0.000000000000000000, -1.000000000000000000 ) ) ;
#140 = CARTESIAN_POINT ( 'NONE',  ( 0.000000000000000000, 0.000000000000000000, -2.500000000000000000 ) ) ;
#141 = CARTESIAN_POINT ( 'NONE',  ( 0.000000000000000000, 0.000000000000000000, -2.500000000000000000 ) ) ;
#142 = LOCAL_TIME ( 14, 26, 38.00000000000000000, #117 ) ;
#143 = EDGE_CURVE ( 'NONE', #75, #7, #70, .T. ) ;
#144 = APPROVAL_DATE_TIME ( #89, #96 ) ;
#145 = PERSON_AND_ORGANIZATION ( #166, #102 ) ;
#146 = DESIGN_CONTEXT ( 'detailed design', #71, 'design' ) ;
#147 = CALENDAR_DATE ( 2022, 7, 6 ) ;
#148 = CARTESIAN_POINT ( 'NONE',  ( 0.000000000000000000, 0.000000000000000000, 0.000000000000000000 ) ) ;
#149 = CC_DESIGN_APPROVAL ( #96, ( #116 ) ) ;
#150 = ORIENTED_EDGE ( 'NONE', *, *, #83, .T. ) ;
#151 = CYLINDRICAL_SURFACE ( 'NONE', #123, 12.50000000000000000 ) ;
#152 = CIRCLE ( 'NONE', #52, 12.50000000000000000 ) ;
#153 = ORIENTED_EDGE ( 'NONE', *, *, #106, .F. ) ;
#154 = DIRECTION ( 'NONE',  ( 0.000000000000000000, 0.000000000000000000, 1.000000000000000000 ) ) ;
#155 = CARTESIAN_POINT ( 'NONE',  ( 12.50000000000000000, 1.530808498934191521E-15, 2.500000000000000000 ) ) ;
#156 =( NAMED_UNIT ( * ) PLANE_ANGLE_UNIT ( ) SI_UNIT ( $, .RADIAN. ) );
#157 = APPROVAL_DATE_TIME ( #41, #131 ) ;
#158 = LINE ( 'NONE', #79, #81 ) ;
#159 = DIRECTION ( 'NONE',  ( 1.000000000000000000, 0.000000000000000000, 0.000000000000000000 ) ) ;
#160 = PLANE ( 'NONE',  #15 ) ;
#161 = EDGE_CURVE ( 'NONE', #7, #75, #152, .T. ) ;
#162 = APPROVAL_DATE_TIME ( #174, #13 ) ;
#163 = DATE_AND_TIME ( #172, #164 ) ;
#164 = LOCAL_TIME ( 14, 26, 38.00000000000000000, #76 ) ;
#165 = MECHANICAL_CONTEXT ( 'NONE', #51, 'mechanical' ) ;
#166 = PERSON ( 'UNSPECIFIED', 'UNSPECIFIED', 'UNSPECIFIED', ('UNSPECIFIED'), ('UNSPECIFIED'), ('UNSPECIFIED') ) ;
#167 = CC_DESIGN_APPROVAL ( #13, ( #36 ) ) ;
#168 = LINE ( 'NONE', #55, #58 ) ;
#169 = ORIENTED_EDGE ( 'NONE', *, *, #143, .T. ) ;
#170 = PERSON_AND_ORGANIZATION_ROLE ( 'design_supplier' ) ;
#171 = CARTESIAN_POINT ( 'NONE',  ( -12.50000000000000000, 0.000000000000000000, 2.500000000000000000 ) ) ;
#172 = CALENDAR_DATE ( 2022, 7, 6 ) ;
#173 = SHAPE_DEFINITION_REPRESENTATION ( #113, #50 ) ;
#174 = DATE_AND_TIME ( #104, #48 ) ;
#175 = ADVANCED_FACE ( 'NONE', ( #129 ), #160, .T. ) ;
ENDSEC;
END-ISO-10303-21;
