ISO-10303-21;
HEADER;
FILE_DESCRIPTION (( 'STEP AP214' ),
    '1' );
FILE_NAME ('5443-E0W.STEP',
    '2009-12-23T16:34:02',
    ( 'Admin' ),
    ( 'Thorlabs, Inc.' ),
    'SwSTEP 2.0',
    'SolidWorks 2009',
    '' );
FILE_SCHEMA (( 'AUTOMOTIVE_DESIGN' ));
ENDSEC;

DATA;
#1 = ADVANCED_FACE ( 'NONE', ( #97 ), #92, .F. ) ;
#2 = EDGE_CURVE ( 'NONE', #4, #64, #73, .T. ) ;
#3 = ADVANCED_FACE ( 'NONE', ( #74 ), #110, .F. ) ;
#4 = VERTEX_POINT ( 'NONE', #106 ) ;
#5 = ORIENTED_EDGE ( 'NONE', *, *, #10, .F. ) ;
#6 = ORIENTED_EDGE ( 'NONE', *, *, #9, .T. ) ;
#7 = ORIENTED_EDGE ( 'NONE', *, *, #10, .T. ) ;
#8 = ORIENTED_EDGE ( 'NONE', *, *, #18, .T. ) ;
#9 = EDGE_CURVE ( 'NONE', #21, #20, #104, .T. ) ;
#10 = EDGE_CURVE ( 'NONE', #4, #21, #115, .T. ) ;
#11 = ORIENTED_EDGE ( 'NONE', *, *, #2, .T. ) ;
#12 = EDGE_LOOP ( 'NONE', ( #5, #11, #22, #16 ) ) ;
#13 = ORIENTED_EDGE ( 'NONE', *, *, #95, .F. ) ;
#14 = EDGE_LOOP ( 'NONE', ( #13, #75 ) ) ;
#15 = ADVANCED_FACE ( 'NONE', ( #116 ), #204, .F. ) ;
#16 = ORIENTED_EDGE ( 'NONE', *, *, #17, .T. ) ;
#17 = EDGE_CURVE ( 'NONE', #51, #21, #173, .T. ) ;
#18 = EDGE_CURVE ( 'NONE', #20, #64, #197, .T. ) ;
#19 = EDGE_LOOP ( 'NONE', ( #45, #99, #94, #31, #30 ) ) ;
#20 = VERTEX_POINT ( 'NONE', #198 ) ;
#21 = VERTEX_POINT ( 'NONE', #193 ) ;
#22 = ORIENTED_EDGE ( 'NONE', *, *, #53, .T. ) ;
#23 = ORIENTED_EDGE ( 'NONE', *, *, #2, .F. ) ;
#24 = ORIENTED_EDGE ( 'NONE', *, *, #26, .F. ) ;
#25 = EDGE_LOOP ( 'NONE', ( #23, #7, #6, #8 ) ) ;
#26 = EDGE_CURVE ( 'NONE', #96, #20, #192, .T. ) ;
#27 =( NAMED_UNIT ( * ) PLANE_ANGLE_UNIT ( ) SI_UNIT ( $, .RADIAN. ) );
#28 = ORIENTED_EDGE ( 'NONE', *, *, #18, .F. ) ;
#29 = FILL_AREA_STYLE ('',( #46 ) ) ;
#30 = ORIENTED_EDGE ( 'NONE', *, *, #17, .F. ) ;
#31 = ORIENTED_EDGE ( 'NONE', *, *, #9, .F. ) ;
#32 = EDGE_CURVE ( 'NONE', #57, #51, #188, .T. ) ;
#33 = DIMENSIONAL_EXPONENTS ( 1.000000000000000000, 0.0000000000000000000, 0.0000000000000000000, 0.0000000000000000000, 0.0000000000000000000, 0.0000000000000000000, 0.0000000000000000000 ) ;
#34 =( LENGTH_UNIT ( ) NAMED_UNIT ( * ) SI_UNIT ( $, .METRE. ) );
#35 = MECHANICAL_DESIGN_GEOMETRIC_PRESENTATION_REPRESENTATION (  '', ( #37 ), #81 ) ;
#36 = PRESENTATION_LAYER_ASSIGNMENT (  '', '', ( #37 ) ) ;
#37 = STYLED_ITEM ( 'NONE', ( #38 ), #3 ) ;
#38 = PRESENTATION_STYLE_ASSIGNMENT (( #39 ) ) ;
#39 = SURFACE_STYLE_USAGE ( .BOTH. , #40 ) ;
#40 = SURFACE_SIDE_STYLE ('',( #65 ) ) ;
#41 =( NAMED_UNIT ( * ) PLANE_ANGLE_UNIT ( ) SI_UNIT ( $, .RADIAN. ) );
#42 =( CONVERSION_BASED_UNIT ( 'INCH', #43 ) LENGTH_UNIT ( ) NAMED_UNIT ( #33 ) );
#43 = LENGTH_MEASURE_WITH_UNIT ( LENGTH_MEASURE( 0.02539999999999999900 ), #34 );
#44 = EDGE_CURVE ( 'NONE', #57, #96, #183, .T. ) ;
#45 = ORIENTED_EDGE ( 'NONE', *, *, #32, .F. ) ;
#46 = FILL_AREA_STYLE_COLOUR ( '', #47 ) ;
#47 = COLOUR_RGB ( '',1.000000000000000000, 1.000000000000000000, 1.000000000000000000 ) ;
#48 = ADVANCED_FACE ( 'NONE', ( #178 ), #149, .T. ) ;
#49 = ADVANCED_FACE ( 'NONE', ( #147 ), #207, .T. ) ;
#50 = ORIENTED_EDGE ( 'NONE', *, *, #95, .T. ) ;
#51 = VERTEX_POINT ( 'NONE', #248 ) ;
#52 = ORIENTED_EDGE ( 'NONE', *, *, #53, .F. ) ;
#53 = EDGE_CURVE ( 'NONE', #64, #51, #244, .T. ) ;
#54 = DIRECTION ( 'NONE',  ( 0.0000000000000000000, 1.000000000000000000, 0.0000000000000000000 ) ) ;
#55 = DIRECTION ( 'NONE',  ( -1.000000000000000000, 0.0000000000000000000, 0.0000000000000000000 ) ) ;
#56 = CARTESIAN_POINT ( 'NONE',  ( 0.0000000000000000000, 0.0000000000000000000, 0.9881889763779530000 ) ) ;
#57 = VERTEX_POINT ( 'NONE', #239 ) ;
#58 = ORIENTED_EDGE ( 'NONE', *, *, #32, .T. ) ;
#59 =( LENGTH_UNIT ( ) NAMED_UNIT ( * ) SI_UNIT ( $, .METRE. ) );
#60 = MECHANICAL_DESIGN_GEOMETRIC_PRESENTATION_REPRESENTATION (  '', ( #85 ), #76 ) ;
#61 = LENGTH_MEASURE_WITH_UNIT ( LENGTH_MEASURE( 0.02539999999999999900 ), #59 );
#62 = DIMENSIONAL_EXPONENTS ( 1.000000000000000000, 0.0000000000000000000, 0.0000000000000000000, 0.0000000000000000000, 0.0000000000000000000, 0.0000000000000000000, 0.0000000000000000000 ) ;
#63 = CLOSED_SHELL ( 'NONE', ( #49, #1, #3, #15, #48 ) ) ;
#64 = VERTEX_POINT ( 'NONE', #238 ) ;
#65 = SURFACE_STYLE_FILL_AREA ( #66 ) ;
#66 = FILL_AREA_STYLE ('',( #67 ) ) ;
#67 = FILL_AREA_STYLE_COLOUR ( '', #68 ) ;
#68 = COLOUR_RGB ( '',1.000000000000000000, 1.000000000000000000, 1.000000000000000000 ) ;
#69 = DIRECTION ( 'NONE',  ( 0.0000000000000000000, 0.0000000000000000000, -1.000000000000000000 ) ) ;
#70 = DIRECTION ( 'NONE',  ( 1.000000000000000000, 0.0000000000000000000, 0.0000000000000000000 ) ) ;
#71 = CARTESIAN_POINT ( 'NONE',  ( 0.0000000000000000000, 0.0000000000000000000, 0.9881889763779530000 ) ) ;
#72 = AXIS2_PLACEMENT_3D ( 'NONE', #71, #70, #69 ) ;
#73 = CIRCLE ( 'NONE', #72, 0.9192913385826773100 ) ;
#74 = FACE_OUTER_BOUND ( 'NONE', #12, .T. ) ;
#75 = ORIENTED_EDGE ( 'NONE', *, *, #44, .F. ) ;
#76 =( GEOMETRIC_REPRESENTATION_CONTEXT ( 3 ) GLOBAL_UNCERTAINTY_ASSIGNED_CONTEXT ( ( #79 ) ) GLOBAL_UNIT_ASSIGNED_CONTEXT ( ( #78, #77, #80 ) ) REPRESENTATION_CONTEXT ( 'NONE', 'WORKASPACE' ) );
#77 =( NAMED_UNIT ( * ) PLANE_ANGLE_UNIT ( ) SI_UNIT ( $, .RADIAN. ) );
#78 =( CONVERSION_BASED_UNIT ( 'INCH', #61 ) LENGTH_UNIT ( ) NAMED_UNIT ( #62 ) );
#79 = UNCERTAINTY_MEASURE_WITH_UNIT (LENGTH_MEASURE( 1.000000000000000100E-005 ), #78, 'distance_accuracy_value', 'NONE');
#80 =( NAMED_UNIT ( * ) SI_UNIT ( $, .STERADIAN. ) SOLID_ANGLE_UNIT ( ) );
#81 =( GEOMETRIC_REPRESENTATION_CONTEXT ( 3 ) GLOBAL_UNCERTAINTY_ASSIGNED_CONTEXT ( ( #82 ) ) GLOBAL_UNIT_ASSIGNED_CONTEXT ( ( #42, #41, #83 ) ) REPRESENTATION_CONTEXT ( 'NONE', 'WORKASPACE' ) );
#82 = UNCERTAINTY_MEASURE_WITH_UNIT (LENGTH_MEASURE( 1.000000000000000100E-005 ), #42, 'distance_accuracy_value', 'NONE');
#83 =( NAMED_UNIT ( * ) SI_UNIT ( $, .STERADIAN. ) SOLID_ANGLE_UNIT ( ) );
#84 = PRESENTATION_LAYER_ASSIGNMENT (  '', '', ( #85 ) ) ;
#85 = STYLED_ITEM ( 'NONE', ( #86 ), #1 ) ;
#86 = PRESENTATION_STYLE_ASSIGNMENT (( #87 ) ) ;
#87 = SURFACE_STYLE_USAGE ( .BOTH. , #88 ) ;
#88 = SURFACE_SIDE_STYLE ('',( #89 ) ) ;
#89 = SURFACE_STYLE_FILL_AREA ( #29 ) ;
#90 = MANIFOLD_SOLID_BREP ( 'NONE', #63 ) ;
#91 = EDGE_LOOP ( 'NONE', ( #50, #58, #52, #28, #24 ) ) ;
#92 = SPHERICAL_SURFACE ( 'NONE', #93, 0.9192913385826773100 ) ;
#93 = AXIS2_PLACEMENT_3D ( 'NONE', #56, #55, #54 ) ;
#94 = ORIENTED_EDGE ( 'NONE', *, *, #26, .T. ) ;
#95 = EDGE_CURVE ( 'NONE', #96, #57, #219, .T. ) ;
#96 = VERTEX_POINT ( 'NONE', #214 ) ;
#97 = FACE_OUTER_BOUND ( 'NONE', #25, .T. ) ;
#98 =( NAMED_UNIT ( * ) SI_UNIT ( $, .STERADIAN. ) SOLID_ANGLE_UNIT ( ) );
#99 = ORIENTED_EDGE ( 'NONE', *, *, #44, .T. ) ;
#100 = DIRECTION ( 'NONE',  ( 1.000000000000000000, 0.0000000000000000000, 0.0000000000000000000 ) ) ;
#101 = DIRECTION ( 'NONE',  ( -0.0000000000000000000, -0.0000000000000000000, 1.000000000000000000 ) ) ;
#102 = CARTESIAN_POINT ( 'NONE',  ( 0.0000000000000000000, 0.0000000000000000000, 0.2167639539725796400 ) ) ;
#103 = AXIS2_PLACEMENT_3D ( 'NONE', #102, #101, #100 ) ;
#104 = CIRCLE ( 'NONE', #103, 0.4999999999999999400 ) ;
#105 = AXIS2_PLACEMENT_3D ( 'NONE', #109, #108, #107 ) ;
#106 = CARTESIAN_POINT ( 'NONE',  ( 0.0000000000000000000, 5.628850071211124500E-017, 0.06889763779527564900 ) ) ;
#107 = DIRECTION ( 'NONE',  ( 0.0000000000000000000, 1.000000000000000000, 0.0000000000000000000 ) ) ;
#108 = DIRECTION ( 'NONE',  ( -1.000000000000000000, 0.0000000000000000000, 0.0000000000000000000 ) ) ;
#109 = CARTESIAN_POINT ( 'NONE',  ( 0.0000000000000000000, 0.0000000000000000000, 0.9881889763779530000 ) ) ;
#110 = SPHERICAL_SURFACE ( 'NONE', #105, 0.9192913385826773100 ) ;
#111 = CARTESIAN_POINT ( 'NONE',  ( 0.0000000000000000000, 0.0000000000000000000, 0.9881889763779530000 ) ) ;
#112 =( NAMED_UNIT ( * ) SI_UNIT ( $, .STERADIAN. ) SOLID_ANGLE_UNIT ( ) );
#113 =( NAMED_UNIT ( * ) PLANE_ANGLE_UNIT ( ) SI_UNIT ( $, .RADIAN. ) );
#114 =( CONVERSION_BASED_UNIT ( 'INCH', #130 ) LENGTH_UNIT ( ) NAMED_UNIT ( #131 ) );
#115 = CIRCLE ( 'NONE', #119, 0.9192913385826773100 ) ;
#116 = FACE_OUTER_BOUND ( 'NONE', #14, .T. ) ;
#117 = DIRECTION ( 'NONE',  ( -1.224606353822377300E-016, -1.000000000000000000, 0.0000000000000000000 ) ) ;
#118 = DIRECTION ( 'NONE',  ( -1.000000000000000000, 1.224606353822377300E-016, 0.0000000000000000000 ) ) ;
#119 = AXIS2_PLACEMENT_3D ( 'NONE', #111, #118, #117 ) ;
#120 = COLOUR_RGB ( '',1.000000000000000000, 1.000000000000000000, 1.000000000000000000 ) ;
#121 = MECHANICAL_DESIGN_GEOMETRIC_PRESENTATION_REPRESENTATION (  '', ( #123 ), #134 ) ;
#122 = PRESENTATION_LAYER_ASSIGNMENT (  '', '', ( #123 ) ) ;
#123 = STYLED_ITEM ( 'NONE', ( #124 ), #15 ) ;
#124 = PRESENTATION_STYLE_ASSIGNMENT (( #125 ) ) ;
#125 = SURFACE_STYLE_USAGE ( .BOTH. , #126 ) ;
#126 = SURFACE_SIDE_STYLE ('',( #127 ) ) ;
#127 = SURFACE_STYLE_FILL_AREA ( #128 ) ;
#128 = FILL_AREA_STYLE ('',( #129 ) ) ;
#129 = FILL_AREA_STYLE_COLOUR ( '', #120 ) ;
#130 = LENGTH_MEASURE_WITH_UNIT ( LENGTH_MEASURE( 0.02539999999999999900 ), #132 );
#131 = DIMENSIONAL_EXPONENTS ( 1.000000000000000000, 0.0000000000000000000, 0.0000000000000000000, 0.0000000000000000000, 0.0000000000000000000, 0.0000000000000000000, 0.0000000000000000000 ) ;
#132 =( LENGTH_UNIT ( ) NAMED_UNIT ( * ) SI_UNIT ( $, .METRE. ) );
#133 =( NAMED_UNIT ( * ) SI_UNIT ( $, .STERADIAN. ) SOLID_ANGLE_UNIT ( ) );
#134 =( GEOMETRIC_REPRESENTATION_CONTEXT ( 3 ) GLOBAL_UNCERTAINTY_ASSIGNED_CONTEXT ( ( #135 ) ) GLOBAL_UNIT_ASSIGNED_CONTEXT ( ( #114, #113, #112 ) ) REPRESENTATION_CONTEXT ( 'NONE', 'WORKASPACE' ) );
#135 = UNCERTAINTY_MEASURE_WITH_UNIT (LENGTH_MEASURE( 1.000000000000000100E-005 ), #114, 'distance_accuracy_value', 'NONE');
#136 = STYLED_ITEM ( 'NONE', ( #137 ), #49 ) ;
#137 = PRESENTATION_STYLE_ASSIGNMENT (( #138 ) ) ;
#138 = SURFACE_STYLE_USAGE ( .BOTH. , #139 ) ;
#139 = SURFACE_SIDE_STYLE ('',( #140 ) ) ;
#140 = SURFACE_STYLE_FILL_AREA ( #141 ) ;
#141 = FILL_AREA_STYLE ('',( #148 ) ) ;
#142 = COLOUR_RGB ( '',1.000000000000000000, 1.000000000000000000, 1.000000000000000000 ) ;
#143 = DIRECTION ( 'NONE',  ( 1.000000000000000000, 0.0000000000000000000, 0.0000000000000000000 ) ) ;
#144 = DIRECTION ( 'NONE',  ( -0.0000000000000000000, -0.0000000000000000000, 1.000000000000000000 ) ) ;
#145 = CARTESIAN_POINT ( 'NONE',  ( 0.0000000000000000000, 0.0000000000000000000, 0.3550060342688710600 ) ) ;
#146 = AXIS2_PLACEMENT_3D ( 'NONE', #145, #144, #143 ) ;
#147 = FACE_OUTER_BOUND ( 'NONE', #91, .T. ) ;
#148 = FILL_AREA_STYLE_COLOUR ( '', #142 ) ;
#149 = CYLINDRICAL_SURFACE ( 'NONE', #146, 0.5000000000000000000 ) ;
#150 =( GEOMETRIC_REPRESENTATION_CONTEXT ( 3 ) GLOBAL_UNCERTAINTY_ASSIGNED_CONTEXT ( ( #151 ) ) GLOBAL_UNIT_ASSIGNED_CONTEXT ( ( #154, #153, #152 ) ) REPRESENTATION_CONTEXT ( 'NONE', 'WORKASPACE' ) );
#151 = UNCERTAINTY_MEASURE_WITH_UNIT (LENGTH_MEASURE( 1.000000000000000100E-005 ), #154, 'distance_accuracy_value', 'NONE');
#152 =( NAMED_UNIT ( * ) SI_UNIT ( $, .STERADIAN. ) SOLID_ANGLE_UNIT ( ) );
#153 =( NAMED_UNIT ( * ) PLANE_ANGLE_UNIT ( ) SI_UNIT ( $, .RADIAN. ) );
#154 =( CONVERSION_BASED_UNIT ( 'INCH', #155 ) LENGTH_UNIT ( ) NAMED_UNIT ( #156 ) );
#155 = LENGTH_MEASURE_WITH_UNIT ( LENGTH_MEASURE( 0.02539999999999999900 ), #157 );
#156 = DIMENSIONAL_EXPONENTS ( 1.000000000000000000, 0.0000000000000000000, 0.0000000000000000000, 0.0000000000000000000, 0.0000000000000000000, 0.0000000000000000000, 0.0000000000000000000 ) ;
#157 =( LENGTH_UNIT ( ) NAMED_UNIT ( * ) SI_UNIT ( $, .METRE. ) );
#158 = MECHANICAL_DESIGN_GEOMETRIC_PRESENTATION_REPRESENTATION (  '', ( #160 ), #150 ) ;
#159 = PRESENTATION_LAYER_ASSIGNMENT (  '', '', ( #160 ) ) ;
#160 = STYLED_ITEM ( 'NONE', ( #161 ), #48 ) ;
#161 = PRESENTATION_STYLE_ASSIGNMENT (( #162 ) ) ;
#162 = SURFACE_STYLE_USAGE ( .BOTH. , #163 ) ;
#163 = SURFACE_SIDE_STYLE ('',( #164 ) ) ;
#164 = SURFACE_STYLE_FILL_AREA ( #184 ) ;
#165 = COLOUR_RGB ( '',1.000000000000000000, 1.000000000000000000, 1.000000000000000000 ) ;
#166 =( NAMED_UNIT ( * ) PLANE_ANGLE_UNIT ( ) SI_UNIT ( $, .RADIAN. ) );
#167 =( CONVERSION_BASED_UNIT ( 'INCH', #168 ) LENGTH_UNIT ( ) NAMED_UNIT ( #169 ) );
#168 = LENGTH_MEASURE_WITH_UNIT ( LENGTH_MEASURE( 0.02539999999999999900 ), #170 );
#169 = DIMENSIONAL_EXPONENTS ( 1.000000000000000000, 0.0000000000000000000, 0.0000000000000000000, 0.0000000000000000000, 0.0000000000000000000, 0.0000000000000000000, 0.0000000000000000000 ) ;
#170 =( LENGTH_UNIT ( ) NAMED_UNIT ( * ) SI_UNIT ( $, .METRE. ) );
#171 = MECHANICAL_DESIGN_GEOMETRIC_PRESENTATION_REPRESENTATION (  '', ( #136 ), #209 ) ;
#172 = PRESENTATION_LAYER_ASSIGNMENT (  '', '', ( #136 ) ) ;
#173 = CIRCLE ( 'NONE', #202, 0.4999999999999999400 ) ;
#174 = DIRECTION ( 'NONE',  ( 1.000000000000000000, 0.0000000000000000000, 0.0000000000000000000 ) ) ;
#175 = DIRECTION ( 'NONE',  ( 0.0000000000000000000, -0.0000000000000000000, 1.000000000000000000 ) ) ;
#176 = AXIS2_PLACEMENT_3D ( 'NONE', #205, #175, #174 ) ;
#177 = FILL_AREA_STYLE_COLOUR ( '', #165 ) ;
#178 = FACE_OUTER_BOUND ( 'NONE', #19, .T. ) ;
#179 = DIRECTION ( 'NONE',  ( 1.000000000000000000, 0.0000000000000000000, 0.0000000000000000000 ) ) ;
#180 = DIRECTION ( 'NONE',  ( -0.0000000000000000000, -0.0000000000000000000, 1.000000000000000000 ) ) ;
#181 = CARTESIAN_POINT ( 'NONE',  ( 0.0000000000000000000, 0.0000000000000000000, -0.06889763779527557900 ) ) ;
#182 = AXIS2_PLACEMENT_3D ( 'NONE', #181, #180, #179 ) ;
#183 = CIRCLE ( 'NONE', #182, 0.5000000000000000000 ) ;
#184 = FILL_AREA_STYLE ('',( #177 ) ) ;
#185 = DIRECTION ( 'NONE',  ( -0.0000000000000000000, -0.0000000000000000000, 1.000000000000000000 ) ) ;
#186 = VECTOR ( 'NONE', #185, 39.37007874015748100 ) ;
#187 = CARTESIAN_POINT ( 'NONE',  ( -0.5000000000000000000, 6.123031769111886300E-017, 0.3550060342688710600 ) ) ;
#188 = LINE ( 'NONE', #187, #186 ) ;
#189 = DIRECTION ( 'NONE',  ( -0.0000000000000000000, -0.0000000000000000000, 1.000000000000000000 ) ) ;
#190 = VECTOR ( 'NONE', #189, 39.37007874015748100 ) ;
#191 = CARTESIAN_POINT ( 'NONE',  ( 0.5000000000000000000, 0.0000000000000000000, 0.3550060342688710600 ) ) ;
#192 = LINE ( 'NONE', #191, #190 ) ;
#193 = CARTESIAN_POINT ( 'NONE',  ( -6.123031769111886300E-017, -0.5000000000000000000, 0.2167639539725796600 ) ) ;
#194 = DIRECTION ( 'NONE',  ( 1.000000000000000000, 0.0000000000000000000, 0.0000000000000000000 ) ) ;
#195 = DIRECTION ( 'NONE',  ( -0.0000000000000000000, -0.0000000000000000000, 1.000000000000000000 ) ) ;
#196 = AXIS2_PLACEMENT_3D ( 'NONE', #203, #195, #194 ) ;
#197 = CIRCLE ( 'NONE', #196, 0.4999999999999999400 ) ;
#198 = CARTESIAN_POINT ( 'NONE',  ( 0.4999999999999999400, 0.0000000000000000000, 0.2167639539725796400 ) ) ;
#199 = DIRECTION ( 'NONE',  ( 1.000000000000000000, 0.0000000000000000000, 0.0000000000000000000 ) ) ;
#200 = DIRECTION ( 'NONE',  ( -0.0000000000000000000, -0.0000000000000000000, 1.000000000000000000 ) ) ;
#201 = CARTESIAN_POINT ( 'NONE',  ( 0.0000000000000000000, 0.0000000000000000000, 0.2167639539725796400 ) ) ;
#202 = AXIS2_PLACEMENT_3D ( 'NONE', #201, #200, #199 ) ;
#203 = CARTESIAN_POINT ( 'NONE',  ( 0.0000000000000000000, 0.0000000000000000000, 0.2167639539725796400 ) ) ;
#204 = PLANE ( 'NONE',  #176 ) ;
#205 = CARTESIAN_POINT ( 'NONE',  ( 0.0000000000000000000, 2.531258147843938500E-017, -0.06889763779527559300 ) ) ;
#206 = UNCERTAINTY_MEASURE_WITH_UNIT (LENGTH_MEASURE( 1.000000000000000100E-005 ), #167, 'distance_accuracy_value', 'NONE');
#207 = CYLINDRICAL_SURFACE ( 'NONE', #208, 0.5000000000000000000 ) ;
#208 = AXIS2_PLACEMENT_3D ( 'NONE', #247, #246, #245 ) ;
#209 =( GEOMETRIC_REPRESENTATION_CONTEXT ( 3 ) GLOBAL_UNCERTAINTY_ASSIGNED_CONTEXT ( ( #206 ) ) GLOBAL_UNIT_ASSIGNED_CONTEXT ( ( #167, #166, #133 ) ) REPRESENTATION_CONTEXT ( 'NONE', 'WORKASPACE' ) );
#210 =( CONVERSION_BASED_UNIT ( 'INCH', #211 ) LENGTH_UNIT ( ) NAMED_UNIT ( #212 ) );
#211 = LENGTH_MEASURE_WITH_UNIT ( LENGTH_MEASURE( 0.02539999999999999900 ), #213 );
#212 = DIMENSIONAL_EXPONENTS ( 1.000000000000000000, 0.0000000000000000000, 0.0000000000000000000, 0.0000000000000000000, 0.0000000000000000000, 0.0000000000000000000, 0.0000000000000000000 ) ;
#213 =( LENGTH_UNIT ( ) NAMED_UNIT ( * ) SI_UNIT ( $, .METRE. ) );
#214 = CARTESIAN_POINT ( 'NONE',  ( 0.5000000000000000000, 0.0000000000000000000, -0.06889763779527557900 ) ) ;
#215 = DIRECTION ( 'NONE',  ( 1.000000000000000000, 0.0000000000000000000, 0.0000000000000000000 ) ) ;
#216 = DIRECTION ( 'NONE',  ( -0.0000000000000000000, -0.0000000000000000000, 1.000000000000000000 ) ) ;
#217 = CARTESIAN_POINT ( 'NONE',  ( 0.0000000000000000000, 0.0000000000000000000, -0.06889763779527557900 ) ) ;
#218 = AXIS2_PLACEMENT_3D ( 'NONE', #217, #216, #215 ) ;
#219 = CIRCLE ( 'NONE', #218, 0.5000000000000000000 ) ;
#220 =( GEOMETRIC_REPRESENTATION_CONTEXT ( 3 ) GLOBAL_UNCERTAINTY_ASSIGNED_CONTEXT ( ( #221 ) ) GLOBAL_UNIT_ASSIGNED_CONTEXT ( ( #224, #223, #222 ) ) REPRESENTATION_CONTEXT ( 'NONE', 'WORKASPACE' ) );
#221 = UNCERTAINTY_MEASURE_WITH_UNIT (LENGTH_MEASURE( 1.000000000000000100E-005 ), #224, 'distance_accuracy_value', 'NONE');
#222 =( NAMED_UNIT ( * ) SI_UNIT ( $, .STERADIAN. ) SOLID_ANGLE_UNIT ( ) );
#223 =( NAMED_UNIT ( * ) PLANE_ANGLE_UNIT ( ) SI_UNIT ( $, .RADIAN. ) );
#224 =( CONVERSION_BASED_UNIT ( 'INCH', #225 ) LENGTH_UNIT ( ) NAMED_UNIT ( #226 ) );
#225 = LENGTH_MEASURE_WITH_UNIT ( LENGTH_MEASURE( 0.02539999999999999900 ), #227 );
#226 = DIMENSIONAL_EXPONENTS ( 1.000000000000000000, 0.0000000000000000000, 0.0000000000000000000, 0.0000000000000000000, 0.0000000000000000000, 0.0000000000000000000, 0.0000000000000000000 ) ;
#227 =( LENGTH_UNIT ( ) NAMED_UNIT ( * ) SI_UNIT ( $, .METRE. ) );
#228 = MECHANICAL_DESIGN_GEOMETRIC_PRESENTATION_REPRESENTATION (  '', ( #230 ), #220 ) ;
#229 = PRESENTATION_LAYER_ASSIGNMENT (  '', '', ( #230 ) ) ;
#230 = STYLED_ITEM ( 'NONE', ( #231 ), #90 ) ;
#231 = PRESENTATION_STYLE_ASSIGNMENT (( #232 ) ) ;
#232 = SURFACE_STYLE_USAGE ( .BOTH. , #233 ) ;
#233 = SURFACE_SIDE_STYLE ('',( #234 ) ) ;
#234 = SURFACE_STYLE_FILL_AREA ( #235 ) ;
#235 = FILL_AREA_STYLE ('',( #236 ) ) ;
#236 = FILL_AREA_STYLE_COLOUR ( '', #237 ) ;
#237 = COLOUR_RGB ( '',0.7529411764705882200, 0.7529411764705882200, 0.7529411764705882200 ) ;
#238 = CARTESIAN_POINT ( 'NONE',  ( 0.0000000000000000000, 0.5000000000000000000, 0.2167639539725796600 ) ) ;
#239 = CARTESIAN_POINT ( 'NONE',  ( -0.5000000000000000000, 6.123031769111886300E-017, -0.06889763779527557900 ) ) ;
#240 = DIRECTION ( 'NONE',  ( 1.000000000000000000, 0.0000000000000000000, 0.0000000000000000000 ) ) ;
#241 = DIRECTION ( 'NONE',  ( -0.0000000000000000000, -0.0000000000000000000, 1.000000000000000000 ) ) ;
#242 = CARTESIAN_POINT ( 'NONE',  ( 0.0000000000000000000, 0.0000000000000000000, 0.2167639539725796400 ) ) ;
#243 = AXIS2_PLACEMENT_3D ( 'NONE', #242, #241, #240 ) ;
#244 = CIRCLE ( 'NONE', #243, 0.4999999999999999400 ) ;
#245 = DIRECTION ( 'NONE',  ( 1.000000000000000000, 0.0000000000000000000, 0.0000000000000000000 ) ) ;
#246 = DIRECTION ( 'NONE',  ( -0.0000000000000000000, -0.0000000000000000000, 1.000000000000000000 ) ) ;
#247 = CARTESIAN_POINT ( 'NONE',  ( 0.0000000000000000000, 0.0000000000000000000, 0.3550060342688710600 ) ) ;
#248 = CARTESIAN_POINT ( 'NONE',  ( -0.4999999999999999400, 6.123031769111885100E-017, 0.2167639539725796400 ) ) ;
#249 = ADVANCED_BREP_SHAPE_REPRESENTATION ( '5443-E0W', ( #90, #270 ), #250 ) ;
#250 =( GEOMETRIC_REPRESENTATION_CONTEXT ( 3 ) GLOBAL_UNCERTAINTY_ASSIGNED_CONTEXT ( ( #251 ) ) GLOBAL_UNIT_ASSIGNED_CONTEXT ( ( #210, #253, #252 ) ) REPRESENTATION_CONTEXT ( 'NONE', 'WORKASPACE' ) );
#251 = UNCERTAINTY_MEASURE_WITH_UNIT (LENGTH_MEASURE( 1.000000000000000100E-005 ), #210, 'distance_accuracy_value', 'NONE');
#252 =( NAMED_UNIT ( * ) SI_UNIT ( $, .STERADIAN. ) SOLID_ANGLE_UNIT ( ) );
#253 =( NAMED_UNIT ( * ) PLANE_ANGLE_UNIT ( ) SI_UNIT ( $, .RADIAN. ) );
#254 =( CONVERSION_BASED_UNIT ( 'INCH', #255 ) LENGTH_UNIT ( ) NAMED_UNIT ( #256 ) );
#255 = LENGTH_MEASURE_WITH_UNIT ( LENGTH_MEASURE( 0.02539999999999999900 ), #257 );
#256 = DIMENSIONAL_EXPONENTS ( 1.000000000000000000, 0.0000000000000000000, 0.0000000000000000000, 0.0000000000000000000, 0.0000000000000000000, 0.0000000000000000000, 0.0000000000000000000 ) ;
#257 =( LENGTH_UNIT ( ) NAMED_UNIT ( * ) SI_UNIT ( $, .METRE. ) );
#258 = MECHANICAL_DESIGN_GEOMETRIC_PRESENTATION_REPRESENTATION (  '', ( #260 ), #272 ) ;
#259 = PRESENTATION_LAYER_ASSIGNMENT (  '', '', ( #260 ) ) ;
#260 = STYLED_ITEM ( 'NONE', ( #261 ), #249 ) ;
#261 = PRESENTATION_STYLE_ASSIGNMENT (( #262 ) ) ;
#262 = SURFACE_STYLE_USAGE ( .BOTH. , #263 ) ;
#263 = SURFACE_SIDE_STYLE ('',( #264 ) ) ;
#264 = SURFACE_STYLE_FILL_AREA ( #265 ) ;
#265 = FILL_AREA_STYLE ('',( #266 ) ) ;
#266 = FILL_AREA_STYLE_COLOUR ( '', #267 ) ;
#267 = COLOUR_RGB ( '',0.7529411764705882200, 0.7529411764705882200, 0.7529411764705882200 ) ;
#268 = DIRECTION ( 'NONE',  ( 1.000000000000000000, 0.0000000000000000000, 0.0000000000000000000 ) ) ;
#269 = DIRECTION ( 'NONE',  ( 0.0000000000000000000, 0.0000000000000000000, 1.000000000000000000 ) ) ;
#270 = AXIS2_PLACEMENT_3D ( 'NONE', #271, #269, #268 ) ;
#271 = CARTESIAN_POINT ( 'NONE',  ( 0.0000000000000000000, 0.0000000000000000000, 0.0000000000000000000 ) ) ;
#272 =( GEOMETRIC_REPRESENTATION_CONTEXT ( 3 ) GLOBAL_UNCERTAINTY_ASSIGNED_CONTEXT ( ( #273 ) ) GLOBAL_UNIT_ASSIGNED_CONTEXT ( ( #254, #27, #98 ) ) REPRESENTATION_CONTEXT ( 'NONE', 'WORKASPACE' ) );
#273 = UNCERTAINTY_MEASURE_WITH_UNIT (LENGTH_MEASURE( 1.000000000000000100E-005 ), #254, 'distance_accuracy_value', 'NONE');
#274 = PRODUCT_DEFINITION_SHAPE ( 'NONE', 'NONE',  #277 ) ;
#275 = PRODUCT_RELATED_PRODUCT_CATEGORY ( 'part', '', ( #281 ) ) ;
#276 = PRODUCT_DEFINITION_FORMATION_WITH_SPECIFIED_SOURCE ( 'ANY', '', #281, .NOT_KNOWN. ) ;
#277 = PRODUCT_DEFINITION ( 'UNKNOWN', '', #276, #278 ) ;
#278 = PRODUCT_DEFINITION_CONTEXT ( 'detailed design', #280, 'design' ) ;
#279 = APPLICATION_PROTOCOL_DEFINITION ( 'draft international standard', 'automotive_design', 1998, #280 ) ;
#280 = APPLICATION_CONTEXT ( 'automotive_design' ) ;
#281 = PRODUCT ( '5443-E0W', '5443-E0W', '', ( #282 ) ) ;
#282 = PRODUCT_CONTEXT ( 'NONE', #284, 'mechanical' ) ;
#283 = APPLICATION_PROTOCOL_DEFINITION ( 'draft international standard', 'automotive_design', 1998, #284 ) ;
#284 = APPLICATION_CONTEXT ( 'automotive_design' ) ;
#285 = SHAPE_DEFINITION_REPRESENTATION ( #274, #249 ) ;
ENDSEC;
END-ISO-10303-21;
