ISO-10303-21;
HEADER;
FILE_DESCRIPTION (( 'STEP AP203' ),
    '1' );
FILE_NAME ('Web Model 17258_17258.step',
    '2021-04-20T13:39:23',
    ( '' ),
    ( '' ),
    'SwSTEP 2.0',
    'SolidWorks 2018',
    '' );
FILE_SCHEMA (( 'CONFIG_CONTROL_DESIGN' ));
ENDSEC;

DATA;
#1 = VECTOR ( 'NONE', #126, 39.37007874015748143 ) ;
#2 = CARTESIAN_POINT ( 'NONE',  ( -0.9842519685039372579, 0.9842519685039368138, 0.000000000000000000 ) ) ;
#3 = CC_DESIGN_DATE_AND_TIME_ASSIGNMENT ( #152, #175, ( #235 ) ) ;
#4 = VECTOR ( 'NONE', #232, 39.37007874015748143 ) ;
#5 = LINE ( 'NONE', #186, #58 ) ;
#6 = DIRECTION ( 'NONE',  ( 0.000000000000000000, 1.000000000000000000, 0.000000000000000000 ) ) ;
#7 = APPROVAL_PERSON_ORGANIZATION ( #62, #26, #71 ) ;
#8 = CLOSED_SHELL ( 'NONE', ( #127, #179, #76, #200, #54, #181 ) ) ;
#9 = APPLICATION_PROTOCOL_DEFINITION ( 'international standard', 'config_control_design', 1994, #157 ) ;
#10 = PLANE ( 'NONE',  #149 ) ;
#11 = AXIS2_PLACEMENT_3D ( 'NONE', #86, #155, #104 ) ;
#12 = AXIS2_PLACEMENT_3D ( 'NONE', #209, #99, #65 ) ;
#13 = ORIENTED_EDGE ( 'NONE', *, *, #120, .T. ) ;
#14 = CC_DESIGN_DATE_AND_TIME_ASSIGNMENT ( #176, #28, ( #203 ) ) ;
#15 = EDGE_CURVE ( 'NONE', #227, #160, #35, .T. ) ;
#16 = ORIENTED_EDGE ( 'NONE', *, *, #75, .T. ) ;
#17 = LINE ( 'NONE', #215, #67 ) ;
#18 = PERSON ( 'UNSPECIFIED', 'UNSPECIFIED', 'UNSPECIFIED', ('UNSPECIFIED'), ('UNSPECIFIED'), ('UNSPECIFIED') ) ;
#19 = DIRECTION ( 'NONE',  ( -2.081668171172168760E-16, 1.000000000000000000, -0.000000000000000000 ) ) ;
#20 = CARTESIAN_POINT ( 'NONE',  ( -0.9842519685039369248, -0.9842519685039370358, 0.000000000000000000 ) ) ;
#21 = CARTESIAN_POINT ( 'NONE',  ( 0.9842519685039369248, 0.9842519685039368138, 0.04330708661417323468 ) ) ;
#22 = ORIENTED_EDGE ( 'NONE', *, *, #120, .F. ) ;
#23 = PLANE ( 'NONE',  #72 ) ;
#24 = CC_DESIGN_APPROVAL ( #26, ( #218 ) ) ;
#25 = CALENDAR_DATE ( 2021, 20, 4 ) ;
#26 = APPROVAL ( #31, 'UNSPECIFIED' ) ;
#27 =( LENGTH_UNIT ( ) NAMED_UNIT ( * ) SI_UNIT ( $, .METRE. ) );
#28 = DATE_TIME_ROLE ( 'classification_date' ) ;
#29 =( NAMED_UNIT ( * ) PLANE_ANGLE_UNIT ( ) SI_UNIT ( $, .RADIAN. ) );
#30 = ORIENTED_EDGE ( 'NONE', *, *, #15, .T. ) ;
#31 = APPROVAL_STATUS ( 'not_yet_approved' ) ;
#32 = LOCAL_TIME ( 9, 39, 23.00000000000000000, #64 ) ;
#33 = APPROVAL_PERSON_ORGANIZATION ( #140, #106, #139 ) ;
#34 = VERTEX_POINT ( 'NONE', #56 ) ;
#35 = LINE ( 'NONE', #184, #217 ) ;
#36 = APPROVAL_DATE_TIME ( #199, #52 ) ;
#37 = DATE_AND_TIME ( #25, #238 ) ;
#38 = DIRECTION ( 'NONE',  ( 1.387778780781445922E-16, -1.000000000000000000, 0.000000000000000000 ) ) ;
#39 = CC_DESIGN_SECURITY_CLASSIFICATION ( #203, ( #218 ) ) ;
#40 = DIRECTION ( 'NONE',  ( 1.387778780781445922E-16, -1.000000000000000000, 0.000000000000000000 ) ) ;
#41 = LOCAL_TIME ( 9, 39, 23.00000000000000000, #136 ) ;
#42 = VERTEX_POINT ( 'NONE', #225 ) ;
#43 = DIRECTION ( 'NONE',  ( 1.000000000000000000, 1.387778780781445922E-16, -0.000000000000000000 ) ) ;
#44 = APPROVAL_PERSON_ORGANIZATION ( #138, #52, #158 ) ;
#45 = CARTESIAN_POINT ( 'NONE',  ( 0.9842519685039369248, 0.9842519685039368138, 0.000000000000000000 ) ) ;
#46 = COORDINATED_UNIVERSAL_TIME_OFFSET ( 5, 0, .BEHIND. ) ;
#47 = PERSON_AND_ORGANIZATION_ROLE ( 'design_owner' ) ;
#48 = PERSON_AND_ORGANIZATION ( #18, #204 ) ;
#49 = ORIENTED_EDGE ( 'NONE', *, *, #75, .F. ) ;
#50 = APPROVAL_STATUS ( 'not_yet_approved' ) ;
#51 = PERSON_AND_ORGANIZATION_ROLE ( 'creator' ) ;
#52 = APPROVAL ( #50, 'UNSPECIFIED' ) ;
#53 = VECTOR ( 'NONE', #115, 39.37007874015748143 ) ;
#54 = ADVANCED_FACE ( 'NONE', ( #162 ), #79, .T. ) ;
#55 = VECTOR ( 'NONE', #189, 39.37007874015748143 ) ;
#56 = CARTESIAN_POINT ( 'NONE',  ( -0.9842519685039369248, -0.9842519685039370358, 0.000000000000000000 ) ) ;
#57 = EDGE_CURVE ( 'NONE', #74, #34, #194, .T. ) ;
#58 = VECTOR ( 'NONE', #40, 39.37007874015748143 ) ;
#59 = AXIS2_PLACEMENT_3D ( 'NONE', #216, #6, #119 ) ;
#60 = CARTESIAN_POINT ( 'NONE',  ( -0.9842519685039369248, -0.9842519685039370358, 0.04330708661417323468 ) ) ;
#61 = EDGE_CURVE ( 'NONE', #227, #42, #188, .T. ) ;
#62 = PERSON_AND_ORGANIZATION ( #18, #204 ) ;
#63 = VERTEX_POINT ( 'NONE', #130 ) ;
#64 = COORDINATED_UNIVERSAL_TIME_OFFSET ( 5, 0, .BEHIND. ) ;
#65 = DIRECTION ( 'NONE',  ( 2.081668171172168760E-16, -1.000000000000000000, 0.000000000000000000 ) ) ;
#66 = ORIENTED_EDGE ( 'NONE', *, *, #156, .F. ) ;
#67 = VECTOR ( 'NONE', #121, 39.37007874015748143 ) ;
#68 = ORIENTED_EDGE ( 'NONE', *, *, #117, .T. ) ;
#69 = PERSON_AND_ORGANIZATION_ROLE ( 'design_supplier' ) ;
#70 = CC_DESIGN_APPROVAL ( #52, ( #203 ) ) ;
#71 = APPROVAL_ROLE ( '' ) ;
#72 = AXIS2_PLACEMENT_3D ( 'NONE', #82, #43, #207 ) ;
#73 = CC_DESIGN_PERSON_AND_ORGANIZATION_ASSIGNMENT ( #193, #47, ( #183 ) ) ;
#74 = VERTEX_POINT ( 'NONE', #142 ) ;
#75 = EDGE_CURVE ( 'NONE', #42, #74, #5, .T. ) ;
#76 = ADVANCED_FACE ( 'NONE', ( #144 ), #23, .F. ) ;
#77 = PRODUCT_DEFINITION_SHAPE ( 'NONE', 'NONE',  #235 ) ;
#78 = CC_DESIGN_PERSON_AND_ORGANIZATION_ASSIGNMENT ( #239, #192, ( #203 ) ) ;
#79 = PLANE ( 'NONE',  #182 ) ;
#80 = ORIENTED_EDGE ( 'NONE', *, *, #57, .F. ) ;
#81 = CARTESIAN_POINT ( 'NONE',  ( -0.9842519685039372579, 0.9842519685039368138, 0.04330708661417323468 ) ) ;
#82 = CARTESIAN_POINT ( 'NONE',  ( -0.9842519685039372579, 0.9842519685039368138, 0.04330708661417323468 ) ) ;
#83 = ORIENTED_EDGE ( 'NONE', *, *, #208, .F. ) ;
#84 = COORDINATED_UNIVERSAL_TIME_OFFSET ( 5, 0, .BEHIND. ) ;
#85 =( NAMED_UNIT ( * ) SI_UNIT ( $, .STERADIAN. ) SOLID_ANGLE_UNIT ( ) );
#86 = CARTESIAN_POINT ( 'NONE',  ( 0.000000000000000000, 0.000000000000000000, 0.000000000000000000 ) ) ;
#87 = ORIENTED_EDGE ( 'NONE', *, *, #141, .F. ) ;
#88 = PLANE ( 'NONE',  #59 ) ;
#89 = CALENDAR_DATE ( 2021, 20, 4 ) ;
#90 = UNCERTAINTY_MEASURE_WITH_UNIT (LENGTH_MEASURE( 1.000000000000000082E-05 ), #154, 'distance_accuracy_value', 'NONE');
#91 = PERSON_AND_ORGANIZATION ( #18, #204 ) ;
#92 = VERTEX_POINT ( 'NONE', #230 ) ;
#93 = CALENDAR_DATE ( 2021, 20, 4 ) ;
#94 = CARTESIAN_POINT ( 'NONE',  ( -0.9842519685039372579, 0.9842519685039368138, 0.04330708661417323468 ) ) ;
#95 = CC_DESIGN_PERSON_AND_ORGANIZATION_ASSIGNMENT ( #178, #51, ( #235 ) ) ;
#96 = APPROVAL_DATE_TIME ( #187, #26 ) ;
#97 = EDGE_LOOP ( 'NONE', ( #180, #80, #49, #229 ) ) ;
#98 = CARTESIAN_POINT ( 'NONE',  ( -0.9842519685039372579, 0.9842519685039368138, 0.000000000000000000 ) ) ;
#99 = DIRECTION ( 'NONE',  ( -1.000000000000000000, -2.081668171172168760E-16, 0.000000000000000000 ) ) ;
#100 = AXIS2_PLACEMENT_3D ( 'NONE', #81, #228, #113 ) ;
#101 = LINE ( 'NONE', #98, #109 ) ;
#102 = LINE ( 'NONE', #2, #145 ) ;
#103 = APPLICATION_CONTEXT ( 'configuration controlled 3d designs of mechanical parts and assemblies' ) ;
#104 = DIRECTION ( 'NONE',  ( 1.000000000000000000, 0.000000000000000000, 0.000000000000000000 ) ) ;
#105 = DESIGN_CONTEXT ( 'detailed design', #103, 'design' ) ;
#106 = APPROVAL ( #234, 'UNSPECIFIED' ) ;
#107 = DIRECTION ( 'NONE',  ( 1.000000000000000000, 0.000000000000000000, 0.000000000000000000 ) ) ;
#108 = EDGE_CURVE ( 'NONE', #34, #92, #195, .T. ) ;
#109 = VECTOR ( 'NONE', #210, 39.37007874015748143 ) ;
#110 = LINE ( 'NONE', #131, #219 ) ;
#111 = DIRECTION ( 'NONE',  ( -0.000000000000000000, 0.000000000000000000, 1.000000000000000000 ) ) ;
#112 = ORIENTED_EDGE ( 'NONE', *, *, #15, .F. ) ;
#113 = DIRECTION ( 'NONE',  ( 0.000000000000000000, -0.000000000000000000, -1.000000000000000000 ) ) ;
#114 = ORIENTED_EDGE ( 'NONE', *, *, #128, .T. ) ;
#115 = DIRECTION ( 'NONE',  ( 1.000000000000000000, 0.000000000000000000, 0.000000000000000000 ) ) ;
#116 = LINE ( 'NONE', #45, #212 ) ;
#117 = EDGE_CURVE ( 'NONE', #160, #125, #101, .T. ) ;
#118 = FACE_OUTER_BOUND ( 'NONE', #201, .T. ) ;
#119 = DIRECTION ( 'NONE',  ( 0.000000000000000000, -0.000000000000000000, 1.000000000000000000 ) ) ;
#120 = EDGE_CURVE ( 'NONE', #74, #63, #165, .T. ) ;
#121 = DIRECTION ( 'NONE',  ( -0.000000000000000000, -0.000000000000000000, -1.000000000000000000 ) ) ;
#122 = CARTESIAN_POINT ( 'NONE',  ( 0.9842519685039369248, 0.9842519685039368138, 0.04330708661417323468 ) ) ;
#123 = ORIENTED_EDGE ( 'NONE', *, *, #108, .T. ) ;
#124 = EDGE_LOOP ( 'NONE', ( #114, #174, #16, #13 ) ) ;
#125 = VERTEX_POINT ( 'NONE', #168 ) ;
#126 = DIRECTION ( 'NONE',  ( -1.000000000000000000, -0.000000000000000000, -0.000000000000000000 ) ) ;
#127 = ADVANCED_FACE ( 'NONE', ( #170 ), #150, .F. ) ;
#128 = EDGE_CURVE ( 'NONE', #63, #227, #196, .T. ) ;
#129 = ADVANCED_BREP_SHAPE_REPRESENTATION ( 'Web Model 17258_17258', ( #172, #11 ), #132 ) ;
#130 = CARTESIAN_POINT ( 'NONE',  ( 0.9842519685039373689, -0.9842519685039370358, 0.04330708661417323468 ) ) ;
#131 = CARTESIAN_POINT ( 'NONE',  ( -0.9842519685039372579, 0.9842519685039368138, 0.04330708661417323468 ) ) ;
#132 =( GEOMETRIC_REPRESENTATION_CONTEXT ( 3 ) GLOBAL_UNCERTAINTY_ASSIGNED_CONTEXT ( ( #90 ) ) GLOBAL_UNIT_ASSIGNED_CONTEXT ( ( #154, #29, #85 ) ) REPRESENTATION_CONTEXT ( 'NONE', 'WORKASPACE' ) );
#133 = APPROVAL_DATE_TIME ( #37, #106 ) ;
#134 = PERSON_AND_ORGANIZATION_ROLE ( 'creator' ) ;
#135 = SECURITY_CLASSIFICATION_LEVEL ( 'unclassified' ) ;
#136 = COORDINATED_UNIVERSAL_TIME_OFFSET ( 5, 0, .BEHIND. ) ;
#137 = CARTESIAN_POINT ( 'NONE',  ( 0.000000000000000000, 0.000000000000000000, 0.000000000000000000 ) ) ;
#138 = PERSON_AND_ORGANIZATION ( #18, #204 ) ;
#139 = APPROVAL_ROLE ( '' ) ;
#140 = PERSON_AND_ORGANIZATION ( #18, #204 ) ;
#141 = EDGE_CURVE ( 'NONE', #42, #125, #110, .T. ) ;
#142 = CARTESIAN_POINT ( 'NONE',  ( -0.9842519685039369248, -0.9842519685039370358, 0.04330708661417323468 ) ) ;
#143 = EDGE_CURVE ( 'NONE', #92, #160, #116, .T. ) ;
#144 = FACE_OUTER_BOUND ( 'NONE', #97, .T. ) ;
#145 = VECTOR ( 'NONE', #38, 39.37007874015748143 ) ;
#146 = FACE_OUTER_BOUND ( 'NONE', #237, .T. ) ;
#147 = ORIENTED_EDGE ( 'NONE', *, *, #57, .T. ) ;
#148 = DIRECTION ( 'NONE',  ( -0.000000000000000000, -0.000000000000000000, -1.000000000000000000 ) ) ;
#149 = AXIS2_PLACEMENT_3D ( 'NONE', #137, #220, #107 ) ;
#150 = PLANE ( 'NONE',  #12 ) ;
#151 = ORIENTED_EDGE ( 'NONE', *, *, #128, .F. ) ;
#152 = DATE_AND_TIME ( #163, #222 ) ;
#153 = EDGE_LOOP ( 'NONE', ( #205, #197, #66, #223 ) ) ;
#154 =( CONVERSION_BASED_UNIT ( 'INCH', #190 ) LENGTH_UNIT ( ) NAMED_UNIT ( #198 ) );
#155 = DIRECTION ( 'NONE',  ( 0.000000000000000000, 0.000000000000000000, 1.000000000000000000 ) ) ;
#156 = EDGE_CURVE ( 'NONE', #125, #34, #102, .T. ) ;
#157 = APPLICATION_CONTEXT ( 'configuration controlled 3d designs of mechanical parts and assemblies' ) ;
#158 = APPROVAL_ROLE ( '' ) ;
#159 = ORIENTED_EDGE ( 'NONE', *, *, #208, .T. ) ;
#160 = VERTEX_POINT ( 'NONE', #169 ) ;
#161 = CARTESIAN_POINT ( 'NONE',  ( -0.9842519685039369248, -0.9842519685039370358, 0.04330708661417323468 ) ) ;
#162 = FACE_OUTER_BOUND ( 'NONE', #124, .T. ) ;
#163 = CALENDAR_DATE ( 2021, 20, 4 ) ;
#164 = CARTESIAN_POINT ( 'NONE',  ( 0.000000000000000000, 0.000000000000000000, 0.04330708661417323468 ) ) ;
#165 = LINE ( 'NONE', #60, #55 ) ;
#166 = EDGE_LOOP ( 'NONE', ( #211, #112, #151, #159 ) ) ;
#167 = PLANE ( 'NONE',  #100 ) ;
#168 = CARTESIAN_POINT ( 'NONE',  ( -0.9842519685039372579, 0.9842519685039368138, 0.000000000000000000 ) ) ;
#169 = CARTESIAN_POINT ( 'NONE',  ( 0.9842519685039369248, 0.9842519685039368138, 0.000000000000000000 ) ) ;
#170 = FACE_OUTER_BOUND ( 'NONE', #166, .T. ) ;
#171 = VECTOR ( 'NONE', #206, 39.37007874015748143 ) ;
#172 = MANIFOLD_SOLID_BREP ( 'Boss-Extrude1', #8 ) ;
#173 = APPLICATION_PROTOCOL_DEFINITION ( 'international standard', 'config_control_design', 1994, #103 ) ;
#174 = ORIENTED_EDGE ( 'NONE', *, *, #61, .T. ) ;
#175 = DATE_TIME_ROLE ( 'creation_date' ) ;
#176 = DATE_AND_TIME ( #93, #221 ) ;
#177 = MECHANICAL_CONTEXT ( 'NONE', #157, 'mechanical' ) ;
#178 = PERSON_AND_ORGANIZATION ( #18, #204 ) ;
#179 = ADVANCED_FACE ( 'NONE', ( #118 ), #167, .F. ) ;
#180 = ORIENTED_EDGE ( 'NONE', *, *, #156, .T. ) ;
#181 = ADVANCED_FACE ( 'NONE', ( #233 ), #10, .F. ) ;
#182 = AXIS2_PLACEMENT_3D ( 'NONE', #164, #111, #202 ) ;
#183 = PRODUCT ( 'Web Model 17258_17258', 'Web Model 17258_17258', '', ( #177 ) ) ;
#184 = CARTESIAN_POINT ( 'NONE',  ( 0.9842519685039369248, 0.9842519685039368138, 0.04330708661417323468 ) ) ;
#185 = DIRECTION ( 'NONE',  ( -0.000000000000000000, -0.000000000000000000, -1.000000000000000000 ) ) ;
#186 = CARTESIAN_POINT ( 'NONE',  ( -0.9842519685039372579, 0.9842519685039368138, 0.04330708661417323468 ) ) ;
#187 = DATE_AND_TIME ( #236, #41 ) ;
#188 = LINE ( 'NONE', #94, #1 ) ;
#189 = DIRECTION ( 'NONE',  ( 1.000000000000000000, 0.000000000000000000, 0.000000000000000000 ) ) ;
#190 = LENGTH_MEASURE_WITH_UNIT ( LENGTH_MEASURE( 0.02539999999999999897 ), #27 );
#191 = CC_DESIGN_PERSON_AND_ORGANIZATION_ASSIGNMENT ( #91, #69, ( #218 ) ) ;
#192 = PERSON_AND_ORGANIZATION_ROLE ( 'classification_officer' ) ;
#193 = PERSON_AND_ORGANIZATION ( #18, #204 ) ;
#194 = LINE ( 'NONE', #161, #171 ) ;
#195 = LINE ( 'NONE', #20, #53 ) ;
#196 = LINE ( 'NONE', #21, #4 ) ;
#197 = ORIENTED_EDGE ( 'NONE', *, *, #108, .F. ) ;
#198 = DIMENSIONAL_EXPONENTS ( 1.000000000000000000, 0.000000000000000000, 0.000000000000000000, 0.000000000000000000, 0.000000000000000000, 0.000000000000000000, 0.000000000000000000 ) ;
#199 = DATE_AND_TIME ( #89, #32 ) ;
#200 = ADVANCED_FACE ( 'NONE', ( #146 ), #88, .F. ) ;
#201 = EDGE_LOOP ( 'NONE', ( #68, #87, #214, #30 ) ) ;
#202 = DIRECTION ( 'NONE',  ( 1.000000000000000000, 0.000000000000000000, 0.000000000000000000 ) ) ;
#203 = SECURITY_CLASSIFICATION ( '', '', #135 ) ;
#204 = ORGANIZATION ( 'UNSPECIFIED', 'UNSPECIFIED', '' ) ;
#205 = ORIENTED_EDGE ( 'NONE', *, *, #143, .F. ) ;
#206 = DIRECTION ( 'NONE',  ( -0.000000000000000000, -0.000000000000000000, -1.000000000000000000 ) ) ;
#207 = DIRECTION ( 'NONE',  ( -1.387778780781445922E-16, 1.000000000000000000, 0.000000000000000000 ) ) ;
#208 = EDGE_CURVE ( 'NONE', #63, #92, #17, .T. ) ;
#209 = CARTESIAN_POINT ( 'NONE',  ( 0.9842519685039369248, 0.9842519685039368138, 0.04330708661417323468 ) ) ;
#210 = DIRECTION ( 'NONE',  ( -1.000000000000000000, -0.000000000000000000, -0.000000000000000000 ) ) ;
#211 = ORIENTED_EDGE ( 'NONE', *, *, #143, .T. ) ;
#212 = VECTOR ( 'NONE', #19, 39.37007874015748143 ) ;
#213 = CC_DESIGN_APPROVAL ( #106, ( #235 ) ) ;
#214 = ORIENTED_EDGE ( 'NONE', *, *, #61, .F. ) ;
#215 = CARTESIAN_POINT ( 'NONE',  ( 0.9842519685039373689, -0.9842519685039370358, 0.04330708661417323468 ) ) ;
#216 = CARTESIAN_POINT ( 'NONE',  ( -0.9842519685039369248, -0.9842519685039370358, 0.04330708661417323468 ) ) ;
#217 = VECTOR ( 'NONE', #185, 39.37007874015748143 ) ;
#218 = PRODUCT_DEFINITION_FORMATION_WITH_SPECIFIED_SOURCE ( 'ANY', '', #183, .NOT_KNOWN. ) ;
#219 = VECTOR ( 'NONE', #148, 39.37007874015748143 ) ;
#220 = DIRECTION ( 'NONE',  ( -0.000000000000000000, 0.000000000000000000, 1.000000000000000000 ) ) ;
#221 = LOCAL_TIME ( 9, 39, 23.00000000000000000, #84 ) ;
#222 = LOCAL_TIME ( 9, 39, 23.00000000000000000, #226 ) ;
#223 = ORIENTED_EDGE ( 'NONE', *, *, #117, .F. ) ;
#224 = SHAPE_DEFINITION_REPRESENTATION ( #77, #129 ) ;
#225 = CARTESIAN_POINT ( 'NONE',  ( -0.9842519685039372579, 0.9842519685039368138, 0.04330708661417323468 ) ) ;
#226 = COORDINATED_UNIVERSAL_TIME_OFFSET ( 5, 0, .BEHIND. ) ;
#227 = VERTEX_POINT ( 'NONE', #122 ) ;
#228 = DIRECTION ( 'NONE',  ( 0.000000000000000000, -1.000000000000000000, 0.000000000000000000 ) ) ;
#229 = ORIENTED_EDGE ( 'NONE', *, *, #141, .T. ) ;
#230 = CARTESIAN_POINT ( 'NONE',  ( 0.9842519685039373689, -0.9842519685039370358, 0.000000000000000000 ) ) ;
#231 = CC_DESIGN_PERSON_AND_ORGANIZATION_ASSIGNMENT ( #48, #134, ( #218 ) ) ;
#232 = DIRECTION ( 'NONE',  ( -2.081668171172168760E-16, 1.000000000000000000, -0.000000000000000000 ) ) ;
#233 = FACE_OUTER_BOUND ( 'NONE', #153, .T. ) ;
#234 = APPROVAL_STATUS ( 'not_yet_approved' ) ;
#235 = PRODUCT_DEFINITION ( 'UNKNOWN', '', #218, #105 ) ;
#236 = CALENDAR_DATE ( 2021, 20, 4 ) ;
#237 = EDGE_LOOP ( 'NONE', ( #123, #83, #22, #147 ) ) ;
#238 = LOCAL_TIME ( 9, 39, 23.00000000000000000, #46 ) ;
#239 = PERSON_AND_ORGANIZATION ( #18, #204 ) ;
#240 = PRODUCT_RELATED_PRODUCT_CATEGORY ( 'detail', '', ( #183 ) ) ;
ENDSEC;
END-ISO-10303-21;
