ISO-10303-21;
HEADER;
FILE_DESCRIPTION (( 'STEP AP203' ),
    '1' );
FILE_NAME ('Web Model 62608.STEP',
    '2017-01-31T18:22:26',
    ( '' ),
    ( '' ),
    'SwSTEP 2.0',
    'SolidWorks 2016',
    '' );
FILE_SCHEMA (( 'CONFIG_CONTROL_DESIGN' ));
ENDSEC;

DATA;
#1 = EDGE_LOOP ( 'NONE', ( #161, #25 ) ) ;
#2 = APPROVAL_PERSON_ORGANIZATION ( #37, #64, #23 ) ;
#3 = FACE_OUTER_BOUND ( 'NONE', #103, .T. ) ;
#4 = DIRECTION ( 'NONE',  ( -1.000000000000000000, 0.0000000000000000000, 0.0000000000000000000 ) ) ;
#5 = SECURITY_CLASSIFICATION ( '', '', #173 ) ;
#6 = PLANE ( 'NONE',  #14 ) ;
#7 =( GEOMETRIC_REPRESENTATION_CONTEXT ( 3 ) GLOBAL_UNCERTAINTY_ASSIGNED_CONTEXT ( ( #45 ) ) GLOBAL_UNIT_ASSIGNED_CONTEXT ( ( #62, #106, #30 ) ) REPRESENTATION_CONTEXT ( 'NONE', 'WORKASPACE' ) );
#8 = DIRECTION ( 'NONE',  ( -0.0000000000000000000, -0.0000000000000000000, -1.000000000000000000 ) ) ;
#9 = CARTESIAN_POINT ( 'NONE',  ( 0.0000000000000000000, 0.0000000000000000000, 0.0000000000000000000 ) ) ;
#10 = DIRECTION ( 'NONE',  ( 0.0000000000000000000, 0.0000000000000000000, 1.000000000000000000 ) ) ;
#11 = LOCAL_TIME ( 13, 22, 26.00000000000000000, #165 ) ;
#12 = CYLINDRICAL_SURFACE ( 'NONE', #131, 37.50000000000000700 ) ;
#13 = PRODUCT_RELATED_PRODUCT_CATEGORY ( 'detail', '', ( #18 ) ) ;
#14 = AXIS2_PLACEMENT_3D ( 'NONE', #155, #130, #75 ) ;
#15 = PERSON_AND_ORGANIZATION ( #92, #58 ) ;
#16 = ORIENTED_EDGE ( 'NONE', *, *, #138, .T. ) ;
#17 = LOCAL_TIME ( 13, 22, 26.00000000000000000, #123 ) ;
#18 = PRODUCT ( 'Web Model 62608', 'Web Model 62608', '', ( #107 ) ) ;
#19 = PERSON_AND_ORGANIZATION_ROLE ( 'creator' ) ;
#20 = EDGE_LOOP ( 'NONE', ( #39, #136 ) ) ;
#21 = APPLICATION_CONTEXT ( 'configuration controlled 3d designs of mechanical parts and assemblies' ) ;
#22 = CALENDAR_DATE ( 2017, 31, 1 ) ;
#23 = APPROVAL_ROLE ( '' ) ;
#24 = EDGE_CURVE ( 'NONE', #102, #98, #89, .T. ) ;
#25 = ORIENTED_EDGE ( 'NONE', *, *, #24, .F. ) ;
#26 = LOCAL_TIME ( 13, 22, 26.00000000000000000, #148 ) ;
#27 = AXIS2_PLACEMENT_3D ( 'NONE', #114, #164, #116 ) ;
#28 = CARTESIAN_POINT ( 'NONE',  ( 0.0000000000000000000, 0.0000000000000000000, 4.000000000000000000 ) ) ;
#29 = LINE ( 'NONE', #141, #56 ) ;
#30 =( NAMED_UNIT ( * ) SI_UNIT ( $, .STERADIAN. ) SOLID_ANGLE_UNIT ( ) );
#31 = APPROVAL_STATUS ( 'not_yet_approved' ) ;
#32 = APPROVAL ( #134, 'UNSPECIFIED' ) ;
#33 = APPROVAL_DATE_TIME ( #66, #174 ) ;
#34 = ORIENTED_EDGE ( 'NONE', *, *, #53, .T. ) ;
#35 = DATE_TIME_ROLE ( 'creation_date' ) ;
#36 = ADVANCED_BREP_SHAPE_REPRESENTATION ( 'Web Model 62608', ( #65, #124 ), #7 ) ;
#37 = PERSON_AND_ORGANIZATION ( #92, #58 ) ;
#38 = DATE_AND_TIME ( #110, #117 ) ;
#39 = ORIENTED_EDGE ( 'NONE', *, *, #96, .T. ) ;
#40 = PRODUCT_DEFINITION ( 'UNKNOWN', '', #122, #100 ) ;
#41 = CC_DESIGN_PERSON_AND_ORGANIZATION_ASSIGNMENT ( #70, #47, ( #122 ) ) ;
#42 = CARTESIAN_POINT ( 'NONE',  ( -37.50000000000000700, 0.0000000000000000000, 0.0000000000000000000 ) ) ;
#43 = CARTESIAN_POINT ( 'NONE',  ( 37.50000000000000700, 4.592425496802575200E-015, 0.0000000000000000000 ) ) ;
#44 = FACE_OUTER_BOUND ( 'NONE', #118, .T. ) ;
#45 = UNCERTAINTY_MEASURE_WITH_UNIT (LENGTH_MEASURE( 1.000000000000000100E-005 ), #62, 'distance_accuracy_value', 'NONE');
#46 = DIRECTION ( 'NONE',  ( -0.0000000000000000000, -0.0000000000000000000, -1.000000000000000000 ) ) ;
#47 = PERSON_AND_ORGANIZATION_ROLE ( 'creator' ) ;
#48 = ORIENTED_EDGE ( 'NONE', *, *, #96, .F. ) ;
#49 = ADVANCED_FACE ( 'NONE', ( #44 ), #12, .T. ) ;
#50 = AXIS2_PLACEMENT_3D ( 'NONE', #156, #8, #91 ) ;
#51 = VECTOR ( 'NONE', #126, 1000.000000000000000 ) ;
#52 = CC_DESIGN_DATE_AND_TIME_ASSIGNMENT ( #112, #158, ( #5 ) ) ;
#53 = EDGE_CURVE ( 'NONE', #109, #98, #139, .T. ) ;
#54 = COORDINATED_UNIVERSAL_TIME_OFFSET ( 5, 0, .BEHIND. ) ;
#55 = APPROVAL_PERSON_ORGANIZATION ( #163, #174, #149 ) ;
#56 = VECTOR ( 'NONE', #129, 1000.000000000000000 ) ;
#57 = DIRECTION ( 'NONE',  ( 0.0000000000000000000, 0.0000000000000000000, 1.000000000000000000 ) ) ;
#58 = ORGANIZATION ( 'UNSPECIFIED', 'UNSPECIFIED', '' ) ;
#59 = CARTESIAN_POINT ( 'NONE',  ( 0.0000000000000000000, 0.0000000000000000000, 4.000000000000000000 ) ) ;
#60 = ORIENTED_EDGE ( 'NONE', *, *, #61, .T. ) ;
#61 = EDGE_CURVE ( 'NONE', #152, #102, #29, .T. ) ;
#62 =( LENGTH_UNIT ( ) NAMED_UNIT ( * ) SI_UNIT ( .MILLI., .METRE. ) );
#63 = APPROVAL_ROLE ( '' ) ;
#64 = APPROVAL ( #31, 'UNSPECIFIED' ) ;
#65 = MANIFOLD_SOLID_BREP ( 'Extrude1', #87 ) ;
#66 = DATE_AND_TIME ( #151, #17 ) ;
#67 = CARTESIAN_POINT ( 'NONE',  ( 0.0000000000000000000, 0.0000000000000000000, 0.0000000000000000000 ) ) ;
#68 = CC_DESIGN_APPROVAL ( #32, ( #122 ) ) ;
#69 = FACE_OUTER_BOUND ( 'NONE', #20, .T. ) ;
#70 = PERSON_AND_ORGANIZATION ( #92, #58 ) ;
#71 = CC_DESIGN_PERSON_AND_ORGANIZATION_ASSIGNMENT ( #128, #78, ( #18 ) ) ;
#72 = PERSON_AND_ORGANIZATION ( #92, #58 ) ;
#73 = CC_DESIGN_APPROVAL ( #174, ( #40 ) ) ;
#74 = DIRECTION ( 'NONE',  ( 1.000000000000000000, 0.0000000000000000000, 0.0000000000000000000 ) ) ;
#75 = DIRECTION ( 'NONE',  ( 1.000000000000000000, 0.0000000000000000000, -0.0000000000000000000 ) ) ;
#76 = CALENDAR_DATE ( 2017, 31, 1 ) ;
#77 = DIRECTION ( 'NONE',  ( 0.0000000000000000000, 0.0000000000000000000, 1.000000000000000000 ) ) ;
#78 = PERSON_AND_ORGANIZATION_ROLE ( 'design_owner' ) ;
#79 = DIRECTION ( 'NONE',  ( 1.000000000000000000, 0.0000000000000000000, 0.0000000000000000000 ) ) ;
#80 = APPROVAL_DATE_TIME ( #38, #32 ) ;
#81 = DIRECTION ( 'NONE',  ( 1.000000000000000000, 0.0000000000000000000, -0.0000000000000000000 ) ) ;
#82 = AXIS2_PLACEMENT_3D ( 'NONE', #9, #77, #79 ) ;
#83 = LOCAL_TIME ( 13, 22, 26.00000000000000000, #54 ) ;
#84 = ORIENTED_EDGE ( 'NONE', *, *, #24, .T. ) ;
#85 = CC_DESIGN_DATE_AND_TIME_ASSIGNMENT ( #171, #35, ( #40 ) ) ;
#86 = CC_DESIGN_PERSON_AND_ORGANIZATION_ASSIGNMENT ( #72, #120, ( #122 ) ) ;
#87 = CLOSED_SHELL ( 'NONE', ( #159, #49, #121, #143 ) ) ;
#88 = DIRECTION ( 'NONE',  ( 1.000000000000000000, 0.0000000000000000000, 0.0000000000000000000 ) ) ;
#89 = CIRCLE ( 'NONE', #108, 37.50000000000000700 ) ;
#90 = FACE_OUTER_BOUND ( 'NONE', #1, .T. ) ;
#91 = DIRECTION ( 'NONE',  ( -1.000000000000000000, 0.0000000000000000000, 0.0000000000000000000 ) ) ;
#92 = PERSON ( 'UNSPECIFIED', 'UNSPECIFIED', 'UNSPECIFIED', ('UNSPECIFIED'), ('UNSPECIFIED'), ('UNSPECIFIED') ) ;
#93 = APPROVAL_STATUS ( 'not_yet_approved' ) ;
#94 = EDGE_CURVE ( 'NONE', #152, #109, #97, .T. ) ;
#95 = CARTESIAN_POINT ( 'NONE',  ( 0.0000000000000000000, 0.0000000000000000000, 0.0000000000000000000 ) ) ;
#96 = EDGE_CURVE ( 'NONE', #109, #152, #113, .T. ) ;
#97 = CIRCLE ( 'NONE', #153, 37.50000000000000700 ) ;
#98 = VERTEX_POINT ( 'NONE', #42 ) ;
#99 = AXIS2_PLACEMENT_3D ( 'NONE', #67, #147, #81 ) ;
#100 = DESIGN_CONTEXT ( 'detailed design', #21, 'design' ) ;
#101 = APPROVAL_PERSON_ORGANIZATION ( #15, #32, #63 ) ;
#102 = VERTEX_POINT ( 'NONE', #43 ) ;
#103 = EDGE_LOOP ( 'NONE', ( #166, #60, #84, #132 ) ) ;
#104 = DIRECTION ( 'NONE',  ( 1.000000000000000000, 0.0000000000000000000, 0.0000000000000000000 ) ) ;
#105 = APPLICATION_CONTEXT ( 'configuration controlled 3d designs of mechanical parts and assemblies' ) ;
#106 =( NAMED_UNIT ( * ) PLANE_ANGLE_UNIT ( ) SI_UNIT ( $, .RADIAN. ) );
#107 = MECHANICAL_CONTEXT ( 'NONE', #105, 'mechanical' ) ;
#108 = AXIS2_PLACEMENT_3D ( 'NONE', #115, #144, #88 ) ;
#109 = VERTEX_POINT ( 'NONE', #142 ) ;
#110 = CALENDAR_DATE ( 2017, 31, 1 ) ;
#111 = CC_DESIGN_PERSON_AND_ORGANIZATION_ASSIGNMENT ( #140, #19, ( #40 ) ) ;
#112 = DATE_AND_TIME ( #76, #83 ) ;
#113 = CIRCLE ( 'NONE', #27, 37.50000000000000700 ) ;
#114 = CARTESIAN_POINT ( 'NONE',  ( 0.0000000000000000000, 0.0000000000000000000, 4.000000000000000000 ) ) ;
#115 = CARTESIAN_POINT ( 'NONE',  ( 0.0000000000000000000, 0.0000000000000000000, 0.0000000000000000000 ) ) ;
#116 = DIRECTION ( 'NONE',  ( 1.000000000000000000, 0.0000000000000000000, 0.0000000000000000000 ) ) ;
#117 = LOCAL_TIME ( 13, 22, 26.00000000000000000, #119 ) ;
#118 = EDGE_LOOP ( 'NONE', ( #172, #48, #34, #16 ) ) ;
#119 = COORDINATED_UNIVERSAL_TIME_OFFSET ( 5, 0, .BEHIND. ) ;
#120 = PERSON_AND_ORGANIZATION_ROLE ( 'design_supplier' ) ;
#121 = ADVANCED_FACE ( 'NONE', ( #69 ), #6, .T. ) ;
#122 = PRODUCT_DEFINITION_FORMATION_WITH_SPECIFIED_SOURCE ( 'ANY', '', #18, .NOT_KNOWN. ) ;
#123 = COORDINATED_UNIVERSAL_TIME_OFFSET ( 5, 0, .BEHIND. ) ;
#124 = AXIS2_PLACEMENT_3D ( 'NONE', #95, #10, #104 ) ;
#125 = CC_DESIGN_PERSON_AND_ORGANIZATION_ASSIGNMENT ( #162, #160, ( #5 ) ) ;
#126 = DIRECTION ( 'NONE',  ( -0.0000000000000000000, -0.0000000000000000000, -1.000000000000000000 ) ) ;
#127 = APPROVAL_DATE_TIME ( #145, #64 ) ;
#128 = PERSON_AND_ORGANIZATION ( #92, #58 ) ;
#129 = DIRECTION ( 'NONE',  ( -0.0000000000000000000, -0.0000000000000000000, -1.000000000000000000 ) ) ;
#130 = DIRECTION ( 'NONE',  ( 0.0000000000000000000, 0.0000000000000000000, 1.000000000000000000 ) ) ;
#131 = AXIS2_PLACEMENT_3D ( 'NONE', #28, #46, #4 ) ;
#132 = ORIENTED_EDGE ( 'NONE', *, *, #53, .F. ) ;
#133 = APPLICATION_PROTOCOL_DEFINITION ( 'international standard', 'config_control_design', 1994, #105 ) ;
#134 = APPROVAL_STATUS ( 'not_yet_approved' ) ;
#135 = SHAPE_DEFINITION_REPRESENTATION ( #175, #36 ) ;
#136 = ORIENTED_EDGE ( 'NONE', *, *, #94, .T. ) ;
#137 = CC_DESIGN_SECURITY_CLASSIFICATION ( #5, ( #122 ) ) ;
#138 = EDGE_CURVE ( 'NONE', #98, #102, #146, .T. ) ;
#139 = LINE ( 'NONE', #167, #51 ) ;
#140 = PERSON_AND_ORGANIZATION ( #92, #58 ) ;
#141 = CARTESIAN_POINT ( 'NONE',  ( 37.50000000000000700, 4.592425496802575200E-015, 4.000000000000000000 ) ) ;
#142 = CARTESIAN_POINT ( 'NONE',  ( -37.50000000000000700, 0.0000000000000000000, 4.000000000000000000 ) ) ;
#143 = ADVANCED_FACE ( 'NONE', ( #90 ), #154, .F. ) ;
#144 = DIRECTION ( 'NONE',  ( 0.0000000000000000000, 0.0000000000000000000, 1.000000000000000000 ) ) ;
#145 = DATE_AND_TIME ( #157, #26 ) ;
#146 = CIRCLE ( 'NONE', #82, 37.50000000000000700 ) ;
#147 = DIRECTION ( 'NONE',  ( 0.0000000000000000000, 0.0000000000000000000, 1.000000000000000000 ) ) ;
#148 = COORDINATED_UNIVERSAL_TIME_OFFSET ( 5, 0, .BEHIND. ) ;
#149 = APPROVAL_ROLE ( '' ) ;
#150 = CC_DESIGN_APPROVAL ( #64, ( #5 ) ) ;
#151 = CALENDAR_DATE ( 2017, 31, 1 ) ;
#152 = VERTEX_POINT ( 'NONE', #169 ) ;
#153 = AXIS2_PLACEMENT_3D ( 'NONE', #59, #57, #74 ) ;
#154 = PLANE ( 'NONE',  #99 ) ;
#155 = CARTESIAN_POINT ( 'NONE',  ( 0.0000000000000000000, 0.0000000000000000000, 4.000000000000000000 ) ) ;
#156 = CARTESIAN_POINT ( 'NONE',  ( 0.0000000000000000000, 0.0000000000000000000, 4.000000000000000000 ) ) ;
#157 = CALENDAR_DATE ( 2017, 31, 1 ) ;
#158 = DATE_TIME_ROLE ( 'classification_date' ) ;
#159 = ADVANCED_FACE ( 'NONE', ( #3 ), #168, .T. ) ;
#160 = PERSON_AND_ORGANIZATION_ROLE ( 'classification_officer' ) ;
#161 = ORIENTED_EDGE ( 'NONE', *, *, #138, .F. ) ;
#162 = PERSON_AND_ORGANIZATION ( #92, #58 ) ;
#163 = PERSON_AND_ORGANIZATION ( #92, #58 ) ;
#164 = DIRECTION ( 'NONE',  ( 0.0000000000000000000, 0.0000000000000000000, 1.000000000000000000 ) ) ;
#165 = COORDINATED_UNIVERSAL_TIME_OFFSET ( 5, 0, .BEHIND. ) ;
#166 = ORIENTED_EDGE ( 'NONE', *, *, #94, .F. ) ;
#167 = CARTESIAN_POINT ( 'NONE',  ( -37.50000000000000700, 0.0000000000000000000, 4.000000000000000000 ) ) ;
#168 = CYLINDRICAL_SURFACE ( 'NONE', #50, 37.50000000000000700 ) ;
#169 = CARTESIAN_POINT ( 'NONE',  ( 37.50000000000000700, 4.592425496802575200E-015, 4.000000000000000000 ) ) ;
#170 = APPLICATION_PROTOCOL_DEFINITION ( 'international standard', 'config_control_design', 1994, #21 ) ;
#171 = DATE_AND_TIME ( #22, #11 ) ;
#172 = ORIENTED_EDGE ( 'NONE', *, *, #61, .F. ) ;
#173 = SECURITY_CLASSIFICATION_LEVEL ( 'unclassified' ) ;
#174 = APPROVAL ( #93, 'UNSPECIFIED' ) ;
#175 = PRODUCT_DEFINITION_SHAPE ( 'NONE', 'NONE',  #40 ) ;
ENDSEC;
END-ISO-10303-21;
